The Surprising

Deep Purple

Composição: Gillan / Glover / Paice / Morse / Airey
Tom: G
[Intro]      
              
E|-------------------------------| -------------------------------|
B|-------------------------------| -------------------------------|
G|-------------------------------| -------------------------------|
D|-------5-------4-----4-2-----2-| -------2-------------------2---|
A|----2--------------5-------3---| ----2----------5---2-5-3-----3-|
E|-0---------------7-------5-----| -0---------------3-------5-----|

E|-------------------------------| ----0--------------------------|
B|-------------------------------| ----0--------------------------|
G|-------------------------------| ----0--------------------------|
D|-------5-------4-----7-5-----2-| ----2--------------------------|
A|----2--------------5-------3---| ----2--------------------------|
E|-0---------------7-------5-----| -0-----------------------------|
                   
E|-------------------------------| -------------------------------|
B|-------------------------------| -------------------------------|
G|-------------------------------| -------------------------------|
D|-------5-------4-----4-2-----2-| -------2-------------------2---|
A|----2--------------5-------3---| ----2----------5---2-5-3-----3-|
E|-0---------------7-------5-----| -0---------------3-------5-----|

E|-------------------------------| ----0--------------------------|
B|-------------------------------| ----0--------------------------|
G|-------------------------------| ----0--------------------------|
D|-------5-------4-----7-5-----2-| ----2----------------------2---|
A|----2--------------5-------3---| ----2----------5---2-5-3-----3-|
E|-0---------------7-------5-----| -0---------------3-------5-----|

   Em               D        C       Em      G     Am
It wasn't quite the curse of Tutankhamon
       Em                 D     C          Em      G     Am   
Or the kiss of death from Judas in the night
       Em          D          C      Em      G     Am
And it felt so far beyond the blue horizon
Em               D          C      Em      G     Am
Tempting me with transports of delight

             Bm            G             Am
And when the devil took my hand and said
Am              F 
Come along with me

( Em  D  C  Em )

Em         D       C         Em      G     Am
There I was, wide awake and dreaming
Em               D         C         Em      G     Am
Reaching out for something in the sky
      Em              D      C          Em      G     Am
But I could not control that trembling feeling
Em           D        C        Em      G     Am
Everything I want is slipping by

             Bm            G           
And when the devil took my hand and said
Am                   F 
Something you should see

  Em              D        C      Em      G     Am
I never knew what happened to my nightmare
Em              D    C       Em
Everything went dark that August day
        Em                 D     C       Em      G     Am
And the eclipse was on the other side of somewhere
    Em           D      C   Em      G     Am
But I was on the upside of afraid

[Chorus 3]
             Bm           G              Am 
And then an angel took my hand and said

Am              F 
Come along with me
Página 1 / 1

Letras y titulo
Acordes y artista

restablecer los ajustes
OK