Fiel É Deus

Delino Marçal

Composed by: Delino Marcal
tone: C
C9                           Am7
Ele não é homem pra mentir, nem filho do homem pra se arrepender
             F9       Am         G4    Dm7
Se Deus te prometeu Ele irá cumprir. Nunca falhou não vai falhar
 Am7                                      F9       Am     G  G/B
Nunca tardou não vai tardar, se Deus te prometeu Ele cumprirá

        C9   G/B         C         Am        G
Fiel é Deus     Fiel é Deus  não tarda não falha
        C9   G/B         C  A4 A/C#  Dm7 C/E F             F C/E  
Fiel é Deus     Fiel é Deus  Seu amor não tem fim sempre cuida de 
Dm7      G4        C9
mim  Fiel é Deus 

E|-11b12b13-10-8-7-7h8-7-----------------------------7-8-10-10/12-11b-11b-15h17-15-12r11-8-|
B|------------------------8/10-8-----------------6-8---------------------------------------|
G|-------------------------------------5-7/9-7-9-------------------------------------------|
D|---------------------------------5h7-----------------------------------------------------|
A|-----------------------------------------------------------------------------------------|
E|-----------------------------------------------------------------------------------------|

 Am      G/B  F
Meu Deus é  Fiel 

[Solo]

E|--------------------------------------------------------------------|
B|-----------------------6-8/--13-12-8-10--8-10--10-12-13-15-15b17-13-|
G|-----5-5---5-7-7/9-7-9----------------------------------------------|
D|-5h7-----7----------------------------------------------------------|
A|--------------------------------------------------------------------|
E|--------------------------------------------------------------------|

 Am         G   F
Meu Deus é Fiel

        C9   G/B         C         Am        G
Fiel é Deus     Fiel é Deus  não tarda não falha
        C9   G/B         C A4 A/C#  Dm7 C/E  F       C/E Dm7 G4 F C9                   C
Fiel é Deus     Fiel é Deus  Seu amor não tem fim sempre cuida de mim Fiel é Deus
Page 1 / 1

Lyrics and title
Chords and artist

reset settings
OK