Schörnes Mädchen Aus Dem All

Devilish

Composición de: Bill / Tom Kaulitz
tono: G
(chorus)
E |----------------------------------------------------------------|
B |----------------------------------------------------------------|
G |----------------------------------------------------------------|
D |-5-5-5--5-5--5-5-7-7-7--7-7--7-7-9-9-9--9-9--9-9-9-9-9--9-9--9-9|
A |-5-5-5--5-5--5-5-7-7-7--7-7--7-7-9-9-9--9-9--9-9-9-9-9--9-9--9-9|(1x)
E |-3-3-3--3-3--3-3-5-5-5--5-5--5-5-7-7-7--7-7--7-7-7-7-7--7-7--7-7|

E |---------------------------------------------------------------|
B |---------------------------------------------------------------|
G |---------------------------------------------------------------|
D |-5-5-5--5-5--5-5-7-7-7--7-7--7-7-9-9-9--9--9----9----9---9999--| (1x)
A |-5-5-5--5-5--5-5-7-7-7--7-7--7-7-9-9-9--9--9-~--9-~--9-~-9999--|
E |-3-3-3--3-3--3-3-5-5-5--5-5--5-5-7-7-7--7--7----7----7---7777--|

E |---------------------------------------------------------------|
B |---------------------------------------------------------------|
G |---------------------------------------------------------------|
D |-5-5-5--5-5--5-5-7-7-7--7-7--7-7-9-9-9--9--9----9----9---9999--| (1x)
A |-5-5-5--5-5--5-5-7-7-7--7-7--7-7-9-9-9--9--9-~--9-~--9-~-9999--|
E |-3-3-3--3-3--3-3-5-5-5--5-5--5-5-7-7-7--7--7----7----7---7777--|

E |----------------------------------------------------------------|
B |----------------------------------------------------------------|
G |----------------------------------------------------------------|
D |-5-5-5--5-5--5-5-7-7-7--7-7--7-7-9-9-9--9-9--9-9-9-9-9--9-9--9-9|
A |-5-5-5--5-5--5-5-7-7-7--7-7--7-7-9-9-9--9-9--9-9-9-9-9--9-9--9-9|(1x)
E |-3-3-3--3-3--3-3-5-5-5--5-5--5-5-7-7-7--7-7--7-7-7-7-7--7-7--7-7|

(verse 1)
E |----------------------------------------------------------------------|
B |----------------------------------------------------------------------|
G |7-7-7-7--2-2-2-2--5-5-5-5-----------5-5-5-5--7-7-7-7--2-2-2-2--5-5-5-5|
D |7-7-7-7--2-2-2-2--5-5-5-5--5-5-5-5--5-5-5-5--7-7-7-7--2-2-2-2--5-5-5-5|
A |5-5-5-5--0-0-0-0--3-3-3-3--5-5-5-5--3-3-3-3--5-5-5-5--0-0-0-0--3-3-3-3|
E |---------------------------3-3-3-3------------------------------------|

E |--------------------------------------------------------------------|
B |--------------------------------------------------------------------|
G |----------5-5-5-5--7-7-7-7--2-2-2-2--5-5-5-5-----------5------------|
D |-5-5-5-5--5-5-5-5--7-7-7-7--2-2-2-2--5-5-5-5--5-5-5-5--5-~----------|
A |-5-5-5-5--3-3-3-3--5-5-5-5--0-0-0-0--3-3-3-3--5-5-5-5--3------------|
E |-3-3-3-3--------------------------------------3-3-3-3---------------|

(chorus)
E |----------------------------------------------------------------|
B |----------------------------------------------------------------|
G |----------------------------------------------------------------|
D |-5-5-5--5-5--5-5-7-7-7--7-7--7-7-9-9-9--9-9--9-9-9-9-9--9-9--9-9|
A |-5-5-5--5-5--5-5-7-7-7--7-7--7-7-9-9-9--9-9--9-9-9-9-9--9-9--9-9|
E |-3-3-3--3-3--3-3-5-5-5--5-5--5-5-7-7-7--7-7--7-7-7-7-7--7-7--7-7|

E |---------------------------------------------------------------|
B |---------------------------------------------------------------|
G |---------------------------------------------------------------|
D |-5-5-5--5-5--5-5-7-7-7--7-7--7-7-9-9-9--9--9----9----9---9999--| 
A |-5-5-5--5-5--5-5-7-7-7--7-7--7-7-9-9-9--9--9-~--9-~--9-~-9999--|
E |-3-3-3--3-3--3-3-5-5-5--5-5--5-5-7-7-7--7--7----7----7---7777--|

E |---------------------------------------------------------------|
B |---------------------------------------------------------------|
G |---------------------------------------------------------------|
D |-5-5-5--5-5--5-5-7-7-7--7-7--7-7-9-9-9--9--9----9----9---9999--| 
A |-5-5-5--5-5--5-5-7-7-7--7-7--7-7-9-9-9--9--9-~--9-~--9-~-9999--|
E |-3-3-3--3-3--3-3-5-5-5--5-5--5-5-7-7-7--7--7----7----7---7777--|

E |----------------------------------------------------------------|
B |----------------------------------------------------------------|
G |----------------------------------------------------------------|
D |5-5-5--5-5--5-5-7-7-7--7-7--7-7--9-9-9--9-9--9-9-9-9-9--9-9--9-9|
A |5-5-5--5-5--5-5-7-7-7--7-7--7-7--9-9-9--9-9--9-9-9-9-9--9-9--9-9|
E |3-3-3--3-3--3-3-5-5-5--5-5--5-5--7-7-7--7-7--7-7-7-7-7--7-7--7-7|

(verse 2)
E |----------------------------------------------------------------------|
B |----------------------------------------------------------------------|
G |7-7-7-7--2-2-2-2--5-5-5-5-----------5-5-5-5--7-7-7-7--2-2-2-2--5-5-5-5|
D |7-7-7-7--2-2-2-2--5-5-5-5--5-5-5-5--5-5-5-5--7-7-7-7--2-2-2-2--5-5-5-5|
A |5-5-5-5--0-0-0-0--3-3-3-3--5-5-5-5--3-3-3-3--5-5-5-5--0-0-0-0--3-3-3-3|
E |---------------------------3-3-3-3------------------------------------|

E |--------------------------------------------------------------------|
B |--------------------------------------------------------------------|
G |----------5-5-5-5--7-7-7-7--2-2-2-2--5-5-5-5-----------5------------|
D |-5-5-5-5--5-5-5-5--7-7-7-7--2-2-2-2--5-5-5-5--5-5-5-5--5-~----------|
A |-5-5-5-5--3-3-3-3--5-5-5-5--0-0-0-0--3-3-3-3--5-5-5-5--3------------|
E |-3-3-3-3--------------------------------------3-3-3-3---------------|

(chorus)
E |----------------------------------------------------------------|
B |----------------------------------------------------------------|
G |----------------------------------------------------------------|
D |-5-5-5--5-5--5-5-7-7-7--7-7--7-7-9-9-9--9-9--9-9-9-9-9--9-9--9-9|
A |-5-5-5--5-5--5-5-7-7-7--7-7--7-7-9-9-9--9-9--9-9-9-9-9--9-9--9-9|
E |-3-3-3--3-3--3-3-5-5-5--5-5--5-5-7-7-7--7-7--7-7-7-7-7--7-7--7-7|

E |---------------------------------------------------------------|
B |---------------------------------------------------------------|
G |---------------------------------------------------------------|
D |-5-5-5--5-5--5-5-7-7-7--7-7--7-7-9-9-9--9--9----9----9---9999--| 
A |-5-5-5--5-5--5-5-7-7-7--7-7--7-7-9-9-9--9--9-~--9-~--9-~-9999--|
E |-3-3-3--3-3--3-3-5-5-5--5-5--5-5-7-7-7--7--7----7----7---7777--|

E |---------------------------------------------------------------|
B |---------------------------------------------------------------|
G |---------------------------------------------------------------|
D |-5-5-5--5-5--5-5-7-7-7--7-7--7-7-9-9-9--9--9----9----9---9999--| 
A |-5-5-5--5-5--5-5-7-7-7--7-7--7-7-9-9-9--9--9-~--9-~--9-~-9999--|
E |-3-3-3--3-3--3-3-5-5-5--5-5--5-5-7-7-7--7--7----7----7---7777--|

E |----------------------------------------------------------------|
B |----------------------------------------------------------------|
G |----------------------------------------------------------------|
D |5-5-5--5-5--5-5-7-7-7--7-7--7-7--9-9-9--9-9--9-9-9-9-9--9-9--9-9|
A |5-5-5--5-5--5-5-7-7-7--7-7--7-7--9-9-9--9-9--9-9-9-9-9--9-9--9-9|
E |3-3-3--3-3--3-3-5-5-5--5-5--5-5--7-7-7--7-7--7-7-7-7-7--7-7--7-7|
Página 1 / 1

Letras y titulo
Acordes y artista

restablecer los ajustes
OK