Desejo

Dibob

Composición de: Dedeco / Falcon / Miguel
tono: G
Intro: 
D|-----7-7-8-10-8-8-7-8p7-----7-7-8-10-8-8-7-8p7-
A|-8-8--------------------8-8--------------------
E|-----------------------------------------------...

D|-----------------------------------------------
A|-----7-7-8-10-8-8-7-8p7-----7-7-8-10-8-8-7-8p7-
E|-8-8--------------------8-8--------------------...

D|-------12-12-13-15-13-13-12-13p12----------------------------------------
A|-13-13----------------------------------12-12-13-15-13-13-12-13p12-------
E|----------------------------------13-13----------------------------------...

D|-------14-14-15-17-15-15-14-15-17-15-15-14-15-17-15-15-14-15-17----------
A|-15-15-------------------------------------------------------------------
E|-------------------------------------------------------------------------

Entra a guitarra do Dedeco fazendo a base:
  G
G|-------14-14-15-17-15-15-14-15p14-------14-14-15-17-15-15-14-15p14-
D|-15-15----------------------------15-15---------------------------
A|------------------------------------------------------------------
E|------------------------------------------------------------------...

  D
D|-------14-14-15-17-15-15-14-15p14-------14-14-15-17-15-15-14-15p14-
A|-15-15----------------------------15-15---------------------------
E|------------------------------------------------------------------...

  C                                G
D|-------12-12-13-15-13-13-12-13p12----------------------------------------
A|-13-13----------------------------------12-12-13-15-13-13-12-13p12-------
E|----------------------------------13-13----------------------------------...

  D
D|------14-14-15-17-15-15-14-15-17-15-15-14-15-17-15-15-14-15-------------
A|15-15-------------------------------------------------------------------
E|------------------------------------------------------------------------

G
O meu desejo
                   D
É poder te conquistar
Mas quando a vejo
                  C 
Não consigo te falar porque
G                    D
Pra voce sou só mais um

G
Mas eu me rendo
                  D
É impossível aceitar
Que outra pessoa
                   C
Mais amor que eu possa te dar
G                D
Disso eu vou duvidar

A           Em
Entao me espere
       C   G       D
Pois ainda nao desisti
A        C     D
Do seu amoooooooor
A         C    D
Cê vai ouvir falar em mim

Repete intro, mas agora com base:
  G
D|-----7-7-8-10-8-8-7-8p7-----7-7-8-10-8-8-7-8p7-
A|-8-8--------------------8-8--------------------
E|-----------------------------------------------...
  D
D|--------------------------------------------
A|-----7-7-8-10-8-8-7-8p7-----7-7-8-10-8-8-7p8-
E|-8-8--------------------8-8------------------...
  C                                G
D|-------12-12-13-15-13-13-12-13p12----------------------------------------
A|-13-13----------------------------------12-12-13-15-13-13-12-13p12-------
E|----------------------------------13-13----------------------------------...
  D
D|------14-14-15-17-15-15-14-15-17-15-15-14-15-17-15-15-14-15-------------
A|15-15-------------------------------------------------------------------
E|------------------------------------------------------------------------

enquanto Dedeco canta Miguel faz:
D|15-14-15-14-15-14-15-14----14-15-14----14-15-14-------------15-14-15-14
A|------------------------15----------15----------13-13-15-13------------...

D|-------14-15-15-14-------14-15-15-
A|-15-15-------------15-15----------

G
Espere o sol sair
                 D
deixe a noite entrar
que eu nao aguento mais
                 C
preciso te encontrar
                  G
E é na primeira chance
               D
Que eu vou chegar

A           Em
Entao me espere
       C   G       D
Pois ainda nao desisti
A        C     D
Do seu amoooooooor
A         C    D
Cê vai ouvir falar em mim

Solo3

   G                   D                              C      G           D                                  
D|-7-7-8-7--7-7-8-7------------------7----------7------8-7----8-7--------7----7-8-|
A|------------------10-8-10-10-10-10---10-10-10---10-8-----8------8-8-10---10-----|

A           Em
Entao me espere
       C   G       D
Pois ainda nao desisti
A        C     D
Do seu amoooooooor
A         C    D
Cê vai ouvir falar em mim

Em    D C          D                   |
          Cê vai ouvir falar em mim    |2x

Finalzinho
                   Em
e|-------10------------
B|-10-11----11-10------
G|---------------------
D|----------------12--
Página 1 / 1

Letras y titulo
Acordes y artista

restablecer los ajustes
OK