Tremor

Dimitri Vegas & Like Mike

tono: E (con acordes en la forma de D ) Capotraste en 2ª casa
Intro: Em D9 A7 C

1° Parte

E|--------------------2----------
B|-------------------------------
G|--2-------------2--------------
D|----6-5-4---4-6---4------------
A|-------------------------------
E|-------------------------------

E|-------------------------------
B|-------------------------------
G|-------------------------------
D|--4-2--------------------------
A|------4-2---2-4-2--------------
E|-------------------5-2---------

E|--------------------2----------
B|-------------------------------
G|--2-------------2--------------
D|----6-5-4---4-6---4------------
A|-------------------------------
E|-------------------------------

E|-------------------------------
B|------------3-2----------------
G|-----------------4-2-----------
D|--4-2-----------------4--------
A|------4-2----------------------
E|-------------------------------

Three, two, one, go 

(1° Parte) 

Three, two, one, go

(1° Parte)


2° Parte (2X)

E|--5-4-3-2---2-4-5-2-14---14--12
B|-------------------------------
G|-------------------------------
D|-------------------------------
A|-------------------------------
E|-------------------------------

E|--9--7--7-9-7------2-----------
B|---------------10--------------
G|-------------------------------
D|-------------------------------
A|-------------------------------
E|-------------------------------


3° Parte

E|-----------------------2------
B|--10-9-8-7---7-9-10-7----7----
G|------------------------------
D|------------------------------
A|------------------------------
E|------------------------------

E|------------------------------
B|------------------------------
G|--9--6--4---4-6-4-2-----------
D|---------------------4--------
A|------------------------------
E|------------------------------

E|-----------------------2------
B|--10-9-8-7---7-9-10-7----7----
G|------------------------------
D|------------------------------
A|------------------------------
E|------------------------------

E|------------------------------
B|--7---------------------------
G|----9--6--4--2----------------
D|----------------4--2----------
A|------------------------------
E|------------------------------

(1° Parte) 

Final 

E|------------------------------
B|------------------------------
G|------------------------------
D|--4-2------------2------------
A|------4-2---------------------
E|----------5--2----------------

(1° Parte)
Página 1 / 1

Letras y titulo
Acordes y artista

restablecer los ajustes
OK