Gravity Falls

Disney

tono: E
E|--------------4--2--4------------------------------------------------------|
B|--2-----4--5----------0------2-----4--5--4---7-9-7-5-----------------------|
G|---------------------------------------------------------------------------|
D|---------------------------------------------------------------------------|
A|---------------------------------------------------------------------------|
E|---------------------------------------------------------------------------|

E|---------------------------------------------------------------------------|
B|-5-5-5-----9-9--7-5---9-9-9-7-9-7--5--5-5-5-----9-9--7-5--9-9-9---13-13-13-|
G|---------------------------------------------------------------------------|
D|---------------------------------------------------------------------------|
A|---------------------------------------------------------------------------|
E|---------------------------------------------------------------------------|

E|---------------------------------------------------------------------------|
B|-5-5-5-----9-9--7-5---10-10-9-7---12-9----14-------------------------------|
G|---------------------------------------------------------------------------|
D|---------------------------------------------------------------------------|
A|---------------------------------------------------------------------------|
E|---------------------------------------------------------------------------|

Página 1 / 1

Letras y titulo
Acordes y artista

restablecer los ajustes
OK