That's Too Bad (Byron Jam)

Donavon Frankenreiter

Composición de: Donavon Frankenreiter
tono: A
b = bend
h = hammer on
u = pull off
x = cordas abafadas
~ = vibrato



esse riff segue no decorrer da música...

e|------xx-----------xxxx------xx-----------------------------------|
b|--5---xx-----1h3u1-xxxx--5---xx-----------------------------------|
g|--4b5-xx---2-------xxxx--4b5-xx---2-------------------------------|
d|---------5----------------------5------2u0------------------------|
a|-------------------------------------------3----------------------|
e|------------------------------------------------------------------|



RIFF 2X

Where did you go, what did you do, late last night
Baby don't you know that, I don't want to fight

RIFF 2X

Oh baby why did you get up and leave
Don't you know woman, you're the roots of my tree

RIFF 2X

E7
That's too bad
       D#7  D7 
That's too bad
Your love ain't gonna make me sad no more

RIFF 2X
no more, no more, no more


Am7                           Gm7 G#m7 Am7
Yesterday seems like a life ago
Am7
But today seems like it' movin' real slow

RIFF 2X

Am7                           Gm7 G#m7 Am7
When I look into your big brown eyes
Am7
I don't care if tomorrow's ever gonna lie


RIFF 2X

E7
That's too bad
       D#7  D7 
That's too bad
Your love ain't gonna make me sad no more


solo

e|---5-------------------------------------------------------------------------------------|
b|---8----------------------5----------------------8b10-8b10-8b10-8b10~~~8b10--5-----------|
g|---7b9-------5h7~~~-5h7---5---------------------------------------------------7b9-5------|
d|------------------------7---7--5--7--5---------------------------------------------------|
a|---------------------------------------7--5----------------------------------------------|
e|--------------------------------------------8--5-----------------------------------------|

e|--8-8-8-8-8--7--5---------5-------------------------------------|
b|--8-8-8-8-8--8--7-------5---8-----------------------------------|
g|--9-9-9-9-9--9--7-------------7b9-5-----------------------------|
d|------------------7-5-7~--------------7-5-----------------------|
a|------------------------------------------5-3-------------------|
e|----------------------------------------------5-----------------|

E7
That's too bad
       D#7  D7 
That's too bad
Your love ain't gonna make me sad no more

RIFF 2X
no more, no more, no more
Página 1 / 1

Letras y titulo
Acordes y artista

restablecer los ajustes
OK