What'cha Know About (versão 2)

Donavon Frankenreiter

Composición de: Donavon Frankenreiter
tono: C
Riff 1
                C       G
e|--------------3-------3--|
B|-3h5-3--------5-------3--|
G|-------2h3----5-------4--|
D|-----------5--5-------5--|
A|--------------3-------5--|
E|--------------3-------3--|

Riff 2
e|-------------|
B|-6-6-6-6-6/8-|
G|-7-7-7-7-7/9-|

Riff 3
e|---9b-br-7-------|
B|-----------8-6h8-|
G|-----------------|

Riff 4
e|-----6-8h9-8-6---|
B|-6-8-----------8-|
G|-7---------------|

Riff 5
e|-------------|
B|-3h5-3-------|
G|-------2h3---|
D|-----------5-|


just say what's on your mind

Riff 1

what'cha know about love
you said our love would be
you said you were my girlfriend
some girl you turned out to be
i guess you know about leaving
loving and leaving me
you left me for no reason
but you led me to believe


(Em - F - G)
                                Riff 2
sometimes your life can crumble
                                        Riff 3
sometimes your soul might make a stumble
                                Riff 2
but you can't drown in your sorrow
cause you might be found
you might be found tomorrow

Riff 1
what'cha know about living
when you've been treated like a queen
but a queen don't know about giving
i ain't looking to receive


(Em - F - G)
                                Riff 2
sometimes your life can crumble
                                        Riff 3
sometimes your soul might make a stumble
                                        Riff 4
but you can't drown in your sorrow
cause you might be found
you might be found tomorrow

Riff 5
(C - G|- C - G|- F - G|- F - G)


(Em - F - G)
                                Riff 2
sometimes your life can crumble
                                        Riff 3
sometimes your soul might make a stumble
                                Riff 2
but you can't drown in your sorrow
cause you might be found
you might be found tomorrow

i said, you might be found
you might be found tomorrow
well, you might be found
you might be found tomorrow

                C
e|----------------3-|
B|-3h5-3----------5-|
G|-------2h3-2----5-|
D|-------------5--5-|
A|----------------3-|
E|----------------3-|
Página 1 / 1

Letras y titulo
Acordes y artista

restablecer los ajustes
OK