Above The Winter Moonlight Solo

DragonForce

Composição: Herman Li / Sam Totman / Vadim Pruzhanov / ZP Theart
Tom: G# Afinação: Db Gb Cb E G Db
E|--------------------------------------------|
B|--------------------------------------------|
G|--10-10-10-10--8-7-8-7---7*-----------------|
D|-----------------------8---10*-8*-----------|
A|--------------------------------------------|
E|--------------------------------------------|

E|--------6*-6*-8-10-----------|
B|---6-6*------------11*-------|
G|-7---------------------------|
D|-----------------------------|
A|-----------------------------|
E|-----------------------------|

E|-10-10-10-10-10-10-11-10---13b-11-10-----|
B|-------------------------11--------------|
G|-----------------------------------------|
D|-----------------------------------------|
A|-----------------------------------------|
E|-----------------------------------------|

E|-10-11-13----------------------------------|
B|----------11-10-11-13------1111-13-11*-----|
G|----------------------1010-----------------|
D|-------------------------------------------|
A|-------------------------------------------|
E|-------------------------------------------|

E|----------------------13------11-----10*----|
B|------11------13----------------------------|
G|-1010----1010----1010----1010---1010--------|
D|--------------------------------------------|
A|--------------------------------------------|
E|--------------------------------------------|

E|--------------------------------------------|
B|----------------------15-13-11-13-----------|
G|------14------15------------------14-15-----|
D|-1313----1313----1313-----------------------|
A|--------------------------------------------|
E|--------------------------------------------|

E|--------------------------------------------|
B|------11------13------15-13-11-13-15-16-----|
G|-1010----1010----1010-----------------------|
D|--------------------------------------------|
A|--------------------------------------------|
E|--------------------------------------------|

E|--------------------------------------------|
B|-15h16p15-13---------000000000000-----------|
G|---------------------000000000000-----------|
D|---------------------000000000000-----------|
A|--------------------------------------------|
E|--------------------------------------------|
Página 1 / 1

Letras y titulo
Acordes y artista

restablecer los ajustes
OK