Above The Winter Moonlight

DragonForce

Composición de: Herman Li / Sam Totman / Vadim Pruzhanov / ZP Theart
tono: D
STANDARD TUNING:E A D G B E

e-13----------13-----------------------------------------------------------|
b----15----15----13-------------11----------11--/15--13-11--13-11-10-------|
g-------15----------14----14-15----12----12--------------------------------|
d----------------------15-------------13-----------------------------------|
a--------------------------------------------------------------------------|
e--------------------------------------------------------------------------|

e----------------------13~-15-17-18-15----15-18-20-18-17---20--------------|
b-11----11-13-15-16-13-----------------16----------------18----------------|
g----10--------------------------------------------------------------------|
d--------------------------------------------------------------------------|
a--------------------------------------------------------------------------|
e--------------------------------------------------------------------------|

this time its played with more effects and pinch harmonics and ends with a bend

e-13----------13-----------------------------------------------------------|
b----15----15----13-------------11----------11--/15--13-11--13-11-10-------|
g-------15----------14----14-15----12----12--------------------------------|
d----------------------15-------------13-----------------------------------|
a--------------------------------------------------------------------------|
e--------------------------------------------------------------------------|

e----------------------13~-15-17-18-15----15-18-20-18-17---20--20b~~~------|
b-11----11-13-15-16-13-----------------16----------------18----------------|
g----10--------------------------------------------------------------------|
d--------------------------------------------------------------------------|
a--------------------------------------------------------------------------|
e--------------------------------------------------------------------------|

solo

4:33 - 4:50

|--------------------------------------------|
|--------------------------------------------|
|--10-10-10-10--8-7-8-7---7*-----------------|
|-----------------------8---10*-8*-----------|
|--------------------------------------------|
|--------------------------------------------|

|--------6*-6*-8-10-----------|
|---6-6*------------11*-------|
|-7---------------------------|
|-----------------------------|
|-----------------------------|
|-----------------------------|

|-10-10-10-10-10-10-11-10---13b-11-10-----|
|-------------------------11--------------|
|-----------------------------------------|
|-----------------------------------------|
|-----------------------------------------|
|-----------------------------------------|

|-10-11-13----------------------------------|
|----------11-10-11-13------1111-13-11*-----|
|----------------------1010-----------------|
|-------------------------------------------|
|-------------------------------------------|
|-------------------------------------------|

|----------------------13------11-----10*----|
|------11------13----------------------------|
|-1010----1010----1010----1010---1010--------|
|--------------------------------------------|
|--------------------------------------------|
|--------------------------------------------|

|--------------------------------------------|
|----------------------15-13-11-13-----------|
|------14------15------------------14-15-----|
|-1313----1313----1313-----------------------|
|--------------------------------------------|
|--------------------------------------------|

|--------------------------------------------|
|------11------13------15-13-11-13-15-16-----|
|-1010----1010----1010-----------------------|
|--------------------------------------------|
|--------------------------------------------|
|--------------------------------------------|

|--------------------------------------------|
|-15h16p15-13---------????????????-----------|
|---------------------????????????-----------|
|---------------------????????????-----------|
|--------------------------------------------|
|--------------------------------------------|
Página 1 / 1

Letras y titulo
Acordes y artista

restablecer los ajustes
OK