Disciples Of Babylon

DragonForce

Composição: Herman Li / ZP Theart
Tom: C
Tuning: Standard

Intro
e|----------------------------------------------------------------------------
B|----------------------------------------------------------------------------
G|----------------------------------------------------------------------------   x4
D|--7-----------------------3-----------------------5-------------------------
A|--7-----------5-----------3-----------3---------3-5-----------5-----------5-
E|--5-----8-5-8---8-5-3-1---1-1-1-1-1-1-1-1-1-1-1-1-3-3-3-3-3-3-3-3-3-3-3-3-3-
    x16                       PM ......   PM ....     PM ......   PM ......

e|----------------------------------------------------------------------------
B|----------------------------------------------------------------------------
G|----------------------------------------------------------------------------
D|--3---------------------5----------------------7----------------------------
A|--3---------3---------3-5---------5---------5--7----------------------------
E|--1-1-1-1-1-1-1-1-1-1-1-3-3-3-3-3-3-3-3-3-3-3--5----------------------------
      PM ....   PM ....     PM ....   PM ....    x32

e|----------------------------------------------------------------------------
B|----------------------------------------------------------------------------
G|----------------------------------------------------------------------------
D|--3---------------------5----------------------5-5-5-5-5-5-5-5-5------------
A|--3---------3---------3-5---------5---------5--5-5-5-5-5-5-5-5-5------------
E|--1-1-1-1-1-1-1-1-1-1-1-3-3-3-3-3-3-3-3-3-3-3--3-3-3-3-3-3-3-3-3------------
      PM ....   PM ....     PM ....   PM ....    PM ..............

Verse
e|----------------------------------------------------------------------------
B|----------------------------------------------------------------------------
G|----------------------------------------------------------------------------
D|--7--------7-----------7--------7--------5b---------------------------------
A|--7--------7-----------7--------7-------------------------------------------
E|--5-5-5-5--5-5-5-5--5--5-5-5-5--5-5-5-5-------------------------------------
    PM ..................................                                        x2

e|----------------------------------------------------------------------------
B|----------------------------------------------------------------------------
G|----------------------------------------------------------------------------
D|--7--------7-----------7--------7-------------------------------------------
A|--7--------7-----------7--------7-------------------------------------------
E|--5-5-5-5--5-5-5-5--5--5-5-5-5--5-5-5-5--3b---------------------------------
    PM ..................................

Little bit after verse
e|----------------------------------------------------------------------------
B|----------------------------------------------------------------------------
G|----------------------------------------------------------------------------
D|--3-------------5-------------------------------------------------------------
A|--3-------------5-------------------------------------------------------------
E|--1-------------3-------------------------------------------------------------

Repeat verse, then:

e|----------------------------------------------------------------------------
B|----------------------------------------------------------------------------
G|----------------------------------------------------------------------------
D|--7------3------5------12--10--9/10\9----7------3------5--------------------
A|--7------3------5------12--10--9/10\9----7------3------5--------------------
E|--5------1------3------10--8---7/8-\7----5------1------3--------------------

e|----------------------------------------------------------------------------
B|----------------------------------------------------------------------------
G|----------------------------------------------------------------------------
D|--7------3------5------12--10--9/10\9----7------3------5-5-5-5-5-5-5-5-5----
A|--7------3------5------12--10--9/10\9----7------3------5-5-5-5-5-5-5-5-5----
E|--5------1------3------10--8---7/8-\7----5------1------3-3-3-3-3-3-3-3-3----
                                                         PM ..............

Back to verse, repeat up to this point

Pre-chorus
e|----------------------------------------------------------------------------
B|----------------------------------------------------------------------------
G|--------------------------------5-------------------------------------------
D|--7-----3-----7-----2-----3-----5-----5-------------------------------------
A|--7-----3-----7-----2-----3-----3-----5-------------------------------------
E|--5-----1-----5-----0-----1-----------3-------------------------------------
                                        x32

Chorus
e|----------------------------------------------------------------------------
B|----------------------------------------------------------------------------
G|----------------------------------------------------------------------------
D|--12---------------7-------------------------------------------------------- x3
A|--12---------------7--------------------------------------------------------
E|--10---------------5--------------------------------------------------------
    x16              x16

e|----------------------------------------------------------------------------
B|----------------------------------------------------------------------------
G|----------------------------------------------------------------------------
D|--3-------------------------------------------------------------------------
A|--3-------------------------------------------------------------------------
E|--1-------------------------------------------------------------------------
    x32
Página 1 / 1

Letras y titulo
Acordes y artista

restablecer los ajustes
OK