Time To Go

Dropkick Murphys

Composición de: Al Barr / James Lynch / Ken Casey / Marc Orrell / Matt Kelly
Tabbed By:Allan (Mr_Jubby_Jubs)

Tuning-EADG

Here's the accordian Intro if you are going to do it.
G|----7-9----10-9-7-------------7-9----10-9-7-12-----------------------------|
D|--------10--------10-7-10---------10---------------------------------------|
A|--------------------------10----------------------10-----------------------|
E|---------------------------------------------------------------------------|

G|----7-9----10-9-7------------------------7-9-7-------------|
D|--------10--------10-7-10---------7-9-10-------10-9-10-----|
A|--------------------------10---10--------------------------|
E|-----------------------------------------------------------|

Intro x2
G|--------------------------------------------------------------------------|
D|--------------------------------------------------------------------------|
A|3-333333----------3-333333-3-3333333--3-333333----------------------------|
E|---------1-111111------------------------------1-111111--3-333333-3333333-|

Pre Chorus (Go,Go Black and Gold)
G|-----------------------------------|
D|-----------------------------------|
A|3-3---8\---------------------------|
E|-----------------------------------|

Chorus x2
G|------------------------------------------------------------------|
D|------------------------------------------------------------------|
A|----------------3333333--------------------------------3333333----|
E|-11111111111111---------3333333-11111111111111-3333333------------|

Verse x2
G|--------------------------------------------------------------------------|
D|--------------------------------------------------------------------------|
A|3-333333----------3-333333-3-3333333--3-333333----------------------------|
E|---------1-111111------------------------------1-111111--3-333333-3333333-|

Pre Chorus (Go,Go Black and Gold)
G|-----------------------------------|
D|-----------------------------------|
A|3-3---8\---------------------------|
E|-----------------------------------|

Chorus x2
G|------------------------------------------------------------------|
D|------------------------------------------------------------------|
A|----------------3333333--------------------------------3333333----|
E|-11111111111111---------3333333-11111111111111-3333333------------|

Verse x2
G|--------------------------------------------------------------------------|
D|--------------------------------------------------------------------------|
A|3-333333----------3-333333-3-3333333--3-333333----------------------------|
E|---------1-111111------------------------------1-111111--3-333333-3333333-|

Pre Chorus (Go,Go Black and Gold)
G|-----------------------------------|
D|-----------------------------------|
A|3-3---8\---------------------------|
E|-----------------------------------|

Chorus x2
G|------------------------------------------------------------------|
D|------------------------------------------------------------------|
A|----------------3333333--------------------------------3333333----|
E|-11111111111111---------3333333-11111111111111-3333333------------|

Bridge 6x
G|------------------------------------------|
D|------------------------------------------|
A|---------3--------------------------------|
E|----3--1----------------------------------|

Bridge (Cont)
G|------------------------------------------|
D|------------------------------------------|
A|------------------------------------------|
E|----333333333333--------------------------|

Solo
G|------------------------------------------------------------------|
D|------------------------------------------------------------------|
A|----------------3333333--------------------------------3333333----|
E|-11111111111111---------3333333-11111111111111-3333333------------|

End on A|------------3----|

This is my first tab so please leave comments and corrections and rate me.
Página 1 / 1

Letras y titulo
Acordes y artista

restablecer los ajustes
OK