Consagrado

Dunga

Composición de: Dunga / Rinaldo / Tony Daniel
tono: B
Intro: G#m   F#   E   C#m   F#4   D#m

E|-------------------------------------------------------|
B|----12----14----15----12-14-14b16-14-12-11-------------|
G|-11----11----11----11----------------------13-13-11-11-|
D|-------------------------------------------------------|
A|-------------------------------------------------------|
E|-------------------------------------------------------|

E|-14-14b16-14-14-12-12--11h12p11------------------------|
B|--------------------------------14-12-14b16r14-12-14---|
G|-------------------------------------------------------|
D|-------------------------------------------------------|
A|-------------------------------------------------------|
E|-------------------------------------------------------|

E|----------------------------|
B|-12-14-14b16-14b16r14-12----|
G|-------------------------13-|
D|----------------------------|
A|----------------------------|
E|----------------------------|

G#m             F#
   Que Deus me tem um plano de amor
E7+             B9  F#/A#
   Um plano de amor e paz
G#m               F#
   Que me quer bem, muito mais do que ninguém
E7+         C#m      F#4   F#
   Me ajuda a suportar a dor

G#m             F#
   Mas sei também que fraco eu sou
E7+               B9    F#/A#
   Pra cumprir o que o Senhor
G#m             F#
   Por compaixão, pôs em meu coração
E7+          C#m          F#4  F#
   Os planos que Ele   quis pra mim

E7+         B7+
   Arde o meu coração
E7+           F#4   F#
   O clima desse lugar
E7+           B7+
   Jesus me tem compaixão
    E7+      C#m           F#4   F#
   E diz que não    estou sozinho não

 E/G#     F#/A#   B
Eu sei  que consa- grado eu sou
        G#m
Criado para te   adorar
       E7+
Chamado para te   servir
 C#m      F#
Enviado para amar
   E/G#    F#/A#        B7+
Tens planos que eu   nem mesmo sei
      F#/A#    G#m
Mas sei que posso descobrir
           E
E em tudo aquilo que eu vivi
     F#          E/B
Sei que já   te fiz sorrir

G#m            F#
  Felicidade pra Deus não há maior
E              B   F#/A#
  Ver do céu em minha vida
G#m             F#
  Tudo aquilo que um dia Ele sonhou
E    C#m     F#4 F#
  Por mim para mim
Página 1 / 1

Letras y titulo
Acordes y artista

restablecer los ajustes
OK