Thinking Out Loud

Ed Sheeran

Composición: Ed Sheeran/ Amy Wadge
Tono: D
Primeira Parte:

D   D/F#
  When your legs don’t work 
          G              A
Like they used to before
D  D/F#
   And I can't sweep you 
             G   A
Off of your feet
D  D/F#
  Will your mouth still remember 
     G           A
The taste of my love
D   D/F#
   Will your eyes still smile
  G              A
From your cheeks

            D  D/F#           G
And darling I will be loving you
 A               D  D/F#  G  A
Till we’re seventy
          D  D/F#                  G
And baby my heart could still fall as
 A                D  D/F#
Hard at twenty-three
G              A
I'm thinking 'bout how

Pré-refrão:

 Em                        A7      D
People fall in love in mysterious ways
 Em                        A7
Maybe just the touch of a hand
     Em
Oh, me I fall in love with you 
  A7          Bm
Every single day
Em                          A7
And I just wanna tell you I am

Refrão:

            D  D/F#
So, honey, now
G  A                       D    D/F#  G
  Take me into your loving arms
 A
Kiss me under the light
       D        D/F#  G
Of a thousand stars
  A                            D   D/F#
Place your hand on my beating heart
                 G    A
And I’m thinking out loud
            Bm  A     G
That maybe we  found love
 D/F#   Em   A7  D
Right where we are

Segunda Parte:

D   D/F#
  When my head’s overgone 
        G      A
And my memory fades
D  D/F#
   And the crowds
                   G   A
Don't remember my name
D   D/F#                G         A
  When my hands don’t play the strings

The same way
D  D/F#
   I know you will still 
             G   A
Love me the same

              D    D/F#            G
'Cause honey your soul can never grow 
A              D   D/F#  G  A
Old it’s evergreen
      D     D/F#          G      A
Baby your smile's forever in my mind 
         D  D/F#
And memory
G                A
  I'm thinking 'bout how 

Pré-refrão:

 Em                        A7      D
People fall in love in mysterious ways
 Em                      A7
Maybe it's all part of a plan
     Em
Oh, I'll just keep on making 
     A7      Bm
The same mistakes
 Em                       A7
Hoping that you’ll understand

Refrão:

           D  D/F#
That baby now
G  A                       D    D/F#  G
  Take me into your loving arms
 A
Kiss me under the light
       D        D/F#  G
Of a thousand stars
  A                            D   D/F#
Place your hand on my beating heart
                 G    A
And I’m thinking out loud
            Bm  A     G
That maybe we  found love
 D/F#   Em   A7  D
Right where we are

(D  D/F#  G  A)

Refrão Final:

           D  D/F#
So, baby, now
G  A                       D    D/F#  G
  Take me into your loving arms
 A
Kiss me under the light
       D        D/F#
Of a thousand stars
  G                            D   D/F#
Place your hand on my beating heart
                 G    A
And I’m thinking out loud
       Bm  A     G
Maybe we  found love
 D/F#   Em   A7  D
Right where we are
       Bm  A     G
Maybe we  found love
 D/F#   Em   A7  D
Right where we are
 Bm  A     G
We  found love
 D/F#   Em   A7  D
Right where we are

Dedilhado Primeira Parte:


    D      D/F#     G     A
E|------x-------x-----x---------------------|
B|-3----x--3----x--0--x--2----2-------------|
G|-0h2--x--2----x--0--x--2----2h4-----------|
D|-0----x--0----x--0--x--2----2-------------|
A|------x-------x-----x--0-0--x---0---------|
E|------x--2-2--x--3--x-------x-------------|


Pré-refrão:

Parte 1


    Em             A7    D
E|----x--------------x--2---2---------------|
B|-0--x--0---0----2--x--3---3---------------|
G|-0--x--0---0----0--x--2---2---------------|
D|-2--x--2---2----2--x--0-0---0-------------|
A|----x-----------0--x----------------------|
E|-0--x--0-0---0-----x----------------------|


Parte 2


    Em             A7
E|----x--------------x----------------------|
B|-0--x--0---0----2--x--2---2---------------|
G|-0--x--0---0----0--x--0---0---------------|
D|-2--x--2---2----2--x--2---2---------------|
A|----x-----------0--x--0-0---0-------------|
E|-0--x--0-0---0-----x----------------------|


Parte 3


    Em             A7    Bm
E|----x--------------x------2---------------|
B|-0--x--0---0----2--x--3---3---------------|
G|-0--x--0---0----0--x--4---4---------------|
D|-2--x--2---2----2--x--4---4---------------|
A|----x-----------0--x--2-2---2-------------|
E|-0—-x--0-0---0-----x----------------------|


Parte 4


    Em             A7
E|----x-----------0-0-0-0-0-----------------|
B|-0--x--0---0----2-2-2-2-2-----------------|
G|-0--x--0---0----0-0-0-0-0-----------------|
D|-2--x--2---2----2-2-2-2-2-----------------|
A|----x-----------0-0-0-0-0-----------------|
E|-0--x--0-0---0----------------------------|


Refrão:


    D      D/F#     G     A
E|------x-------x-----x-------x-------------|
B|-3----x--3----x--0--x--2----2-------------|
G|-0h2--x--2----x--0--x--2----2h4-----------|
D|-0----x--0----x--0--x--2----2-------------|
A|------x-------x-----x--0-0--x---0---------|
E|------x--2-2--x--3--x-------x-------------|


    Bm   A    G   D/F#  Em  A7  D
E|-----------------------------2---2--------|
B|-3----2----0----3----0---2---3---3--------|
G|-4----2----0----2----0---0---2---2--------|
D|-4----2----0----0----2---2---0-0---0------|
A|-2----0------------------0----------------|
E|-----------3----2----0--------------------|
Página 1 / 1

Letras y titulo
Acordes y artista

restablecer los ajustes