Leaving With This

Emil Bulls

tono: G
Leaving you with this (1)
Tabbed by: Cell7272
D-Tuning

Intro/Verse:
----------------
----------------
--999999999999--
--999999999999--
--999999999999--

Pre-Chorus
--------------------------------------
--------------------------------------
--------------------------------------
--9999999999-55555555555-77777777777--
--9999999999-55555555555-77777777777--
--9999999999-55555555555-77777777777--

heavy part
----------------------------------
----------------------------------
----------------------------------
----------------------------------
-xxxx77xxx7xxxx77xxx7xxxx77xxx7---
-xxxx77xxx7xxxx77xxx7xxxx77xxx7---

Chorus:
----------------
----------------
----7----------- I'm not shure
--9-7-5-2-5-9---
--9-5-5-2-5-9---
--9---5-2-5-9---


Intro
Pre-Chorus
heavy part
verse
pre-chorus
chorus
heavy part
verse
Pre-Chorus
Chorus
Página 1 / 1

Letras y titulo
Acordes y artista

restablecer los ajustes
OK