Newborn Intro

Emil Bulls

tono: D
Tabbed by: Simon Korn
Email:*

Tuning: Standard
Guitar 1:    
(Repeat through Verse)

e|---------------------------------------------------------------------------|
B|---------10---------------10-----------------------------------------------|
G|-----11------11-------11------11-------------------------------------------|
D|---11--11--11--11---11--11--11--11-----------------------------------------|
A|--9----------------9-------------------------------------------------------|
E|---------------------------------------------------------------------------|

Guitar 2:
(Repeat)
e|---------------------------------------------------------------------------|
B|---------------------------------------------------------------------------|
G|---------------------------------------------------------------------------|
D|-11-------------9------------7---------------------------------------------|
A|-11-(about15*)--9-(about7*)--7-(about7*)-----------------------------------|
E|-9--------------7------------5---------------------------------------------|
   
Página 1 / 1

Letras y titulo
Acordes y artista

restablecer los ajustes
OK