Marshall Mathers

Eminem

Composición de: Jeff Bass / Mark Bass / Marshall Mathers
tono: G
This riff is played throughout the whole song 

e|-------------------------------------------|
B|-------------------------------------------|
G|-----------0-------5------------------0----|
D|---------4-------5-------7-9--------4------|
A|-------2-------3-------5----------2--------|
E|-----0-------5-------7----------0----------|

This is the little solo at the end
                     |1.              |2.
E|-------------------|----------------|--------------------||
B|-------------------|----------------|--------------------||
G|-------------------|----------------|--------------------||
D|-------------------|----------------|--------------------||
A|--2-7-9-10-3-14-12-|-12-10-9h10p9-7-|-12-14-15-14-12-2-7-||
E|-------------------|----------------|--------------------||

(the 1. and 2. mean that you play the first bar then 1. and then the first bar then 2.)

I don't know how right these tabs are but they're better than everyone else's.
Página 1 / 1

Letras y titulo
Acordes y artista

restablecer los ajustes
OK