Stan

Eminem

Composición de: Dido Armstrong / Marshall Mathers / Paul Herman
name=mike gomes
song=stan


-|-|--------------------------------------------------|-----------------------
-|-|--------------------------------------------------|-----------------------
-|-|------------------7------7/9------9---------------|-----------------------
-|-|------4------4--------------------------7---76----|-----------------------
                                                                              

-|-|--------------------------------------------------|-----------------------
-|-|--------------------------------------------------|-----------------------
-|-|------------------7------7/8-----7----------------|-----------------------
-|-|------4------4-------------------------7-6-----4--|-----------------------

Página 1 / 1

Letras y titulo
Acordes y artista

restablecer los ajustes
OK