Till I Collapse

Eminem

Composición de: DOGG NATE / Eminem / Luis Edgardo Resto / TODD BRIAN MAY
tono: F
                   (Refrão)
E|------------------------------------------------|
A|------------------------------------------------|
B|------------------------------------------------|
D|---7-7-7-7-7--5-7-8-7-------7-7-7-7-7--5-7-3----|
G|-5------------------------5---------------------|
E|------------------------------------------------|

E|------------------------------------------------|
A|------------------------------------------------|
B|------------------------------------------------|
D|---7-7-7-7-7--5-7-8-7---7-7-7-7-7--5-7-3--2-----|
G|-5--------------------5---------------------3/5-|
E|------------------------------------------------|

G|-5-5-5-5-5-5-5-5-5-5-5-5-5-5-5-5-5-5-5-5-5-5-5-5|
 ~~~~~~~~~~~~~~~~~~~~PM~~~~~~~~~~~~~~~~~~~~~~~~~~
(2ª Gitarra toca essa nota abafada durante toda a musica)

E|------------------------------------------------|
A|------------------------------------------------|
B|------------------------------------------------|
D|-----7-7-7-7-7--5-7-3---------------------------|
G|--5---------------------------------------------|
E|------------------------------------------------|
(essa parte repete por toda a musica ate o inicio do refrão)
Página 1 / 1

Letras y titulo
Acordes y artista

restablecer los ajustes
OK