Gracia Sublime Es

En Espiritu Y En Verdad

Composición de: Jeremy Riddle / Josh Farro / Phil Wickham
tono: E

E|---------------------------------14-16--------|
B|--16-16-14-16--16-14-16----14-16--------------|
G|------------------------16--------------------|
D|----------------------------------------------|
A|----------------------------------------------|
E|----------------------------------------------|

E|------------------------------------14---------|
B|--16-16-14-16--16-14-16----14-16-17------------|
G|------------------------16---------------------|
D|-----------------------------------------------|
A|-----------------------------------------------|
E|-----------------------------------------------|

Hola que tal mi Nombre es Aridai soy de chihuahua,
les dejo la parte de guitarra la tablatura del
punteo/solo como lo quieran llamar.
Alguna duda, sugerencia, o petición de alguna canción
si puedo ayudarle con gusto!
Dios les Bendiga
Página 1 / 1

Letras y titulo
Acordes y artista

restablecer los ajustes
OK