Armas Químicas e Poemas

Engenheiros do Hawaii

Composición de: Humberto Gessinger
tono: C
[Intro] G  F  C  Bb  C  Bb
        G  F  C  Bb  C  Bb

[1ª Parte]

Riff
E|-10-----10-----10-----10------------------|
B|----8------8------7------7----------------|
G|------7------7------7------7--------------|
D|------------------------------------------|
A|------------------------------------------|
E|------------------------------------------|

E|-10------10-------10-----10---------------|
B|----10------10-------8------8-------------|
G|-------9-------9-------9------9-----------|
D|------------------------------------------|
A|------------------------------------------|
E|------------------------------------------|

G               D
  Eu me lembro muito bem
Am               C
   Como se fosse amanhã
G                 D
  O sol nascendo sem saber
Am         C
   O que iria iluminar
G              D
  Eu abri meu coração
Am               C
   Como se fosse um motor
G            D
  E na hora de voltar
Am           C
   Sobravam peças pelo chão

[Pré Refrão]

B                       C
  Mesmo assim eu fui à luta
B                    D
  Eu quis pagar pra ver

[Refrão]

G       F            C    Bb  C  Bb
 Aonde leva essa loucura?
G          F            C    Bb  C  Bb 
 Qual é a lógica do sistema?
G        F               C       Bb  C  Bb 
 Onde estavam as armas químicas?
G         F        C     Bb  C  Bb 
 O que diziam os poemas?

[2ª Parte]

Riff
E|-10-----10-----10-----10------------------|
B|----8------8------7------7----------------|
G|------7------7------7------7--------------|
D|------------------------------------------|
A|------------------------------------------|
E|------------------------------------------|

E|-10------10-------10-----10---------------|
B|----10------10-------8------8-------------|
G|-------9-------9-------9------9-----------|
D|------------------------------------------|
A|------------------------------------------|
E|------------------------------------------|

G           D
 Afinal de contas
Am                    C
   O que nos trouxe até aqui ?
G           D
 Medo ou coragem ?
Am                   C
  Talvez nenhum dos dois

G                  D
 Sopra o vento um carro 

Passa pela praça
Am        C
E já foi,  já foi

[Pré Refrão]

B                    C
 Por acaso eu fui à luta
B                   D
 Eu quis pagar pra ver

[Refrão]

G       F            C    Bb  C  Bb
 Aonde leva essa loucura?
G          F            C    Bb  C  Bb 
 Qual é a lógica do sistema?
G        F               C       Bb  C  Bb 
 Onde estavam as armas químicas?
G         F        C     Bb  C  Bb 
 O que diziam os poemas?

( G  F  C  Bb  C  Bb )
( G  F  C  Bb  C  Bb )

[3ª Parte]

G                D
 O tempo nos faz esquecer
Am                    C
   O que nos trouxe até aqui
G               D       
 Mas eu lembro muito bem 
Am               C
   Como se fosse amanhã

[Refrão]

G           F                  C   Bb  C  Bb 
 Quem prometeu um descanso em paz?
G       F              C     Bb  C  Bb 
 Pra depois dos comerciais ?
G        F           C    Bb  C  Bb 
 Quem ficou pedindo mais?
G        F          C     Bb  C  Bb 
 Armas químicas e poemas?
G        F          C    
 Armas químicas e poemas?

[Final] Bb  C  Bb  G
Página 1 / 1

Letras y titulo
Acordes y artista

restablecer los ajustes
OK