Notificações Amigos pendentes

      Engenheiros do Hawaii

      Era Um Garoto Que Como Eu

      45 reproducciones
      (intro)
      
      G-----------------------------------------------------------------|
      D-----------------------------------------------------------------|
      A-----------------------------------------------------------------|
      E-----2---2/9---7---9---------------------------------------------|
      
      Era um garoto que, como eu, amava os Beatles e os Rollings Stones
      Girava o mundo sempre a cantar as coisas lindas da América
      
      G-----------------------------------------------------------------|
      D-----------------------------------------------------------------|
      A-----------------------------------------------------------------|
      E-----2---2/9---7---9---------------------------------------------|
      
      
      Não era belo, mas mesmo assim, havia mil garotas a fim
      
      G-----------------------------------------------------------------|
      D-----------------------------------------------------------------|
      A--------------4--4-4----2--2-2----4--4-4-2-----------------------|
      E-----2--2-2------------------------------------------------------|
      
       Cantava "Help!" and "Ticked to Ride" ou "Lady Jane" e "Yesterday"
      
      G---------------------------------------4h6/4h6-------------------|
      D------------------------------------4----------------------------|
      A--------------4--4-4----2--2-2----4------------------------------|
      E-----2--2-2------------------------------------------------------|
      
      Cantava "Viva a Liberdade" mas uma carta sem esperar
      
      G----------------------------------------------------------------|
      D----------------------------------------------------------------|
      A----------------------------------------------------------------|
      E---22222222--77777777---9--9-7-6--6-7-6-------------------------|
      
      Da sua guitarra o separou. Fora chamado na América...
      
      G----------------------------------------------------------------|
      D----------------------------------------------------------------|
      A----------------------------------------------------------------|
      E---22222222--77777777---7-7-6-4--4-4--7-9--9-9-8-6--------------|
      
      STOP com Rollings Stones!/ 
      stop com Beatles songs!
      
      G----------------------------------------------------------------|
      D----------------------------------------------------------------|
      A-----0--2-3-4---------------------------------------------------|
      E---2------------------------------------------------------------|
      
      Mandado foi ao Vietnã, lutar com vietcongs
      
      G----------------------------------------------------------------|
      D----------------------------------------------------------------|
      A----------------------------------------------------------------|
      E---7--6--7--2-------7-6-7-8-9-----------------------------------|
      
      Tcha Tcha Tcha...
         ...Tcha Tcha Tcha Tcha Tcha 
      
      G--------------------------------------------------------------------------------|
      D----------4----------4----------4---------4-----------4-------------------------|
      A------------------------2--2-2-----2--2-2----4---4-4-----4--4-4-------2-4-4-4-2-|
      E---2--2-2---2----2-2--------------------------------------------2-2-2-----------|
      
      Era um garoto que, como eu, amava os Beatles e os Rollings Stones
      
      G-----------------------------------------------------------------|
      D-----------------------------------------------------------------|
      A--------------4--4-4----2--2-2----4--4-4-2-----------------------|
      E-----2--2-2------------------------------------------------------|
      
      Girava o mundo mas acabou fazendo a guerra do Vietnã
      
      G---------------------------------------4h6/4h6-------------------|
      D------------------------------------4----------------------------|
      A--------------4--4-4----2--2-2----4------------------------------|
      E-----2--2-2------------------------------------------------------|
      
      Cabelos longos não usa mais, não toca sua guitarra e sim
      
      G-----------------------------------------------------------------|
      D-----------------------------------------------------------------|
      A--------------4--4-4----2--2-2----4--4-4-2-----------------------|
      E-----2--2-2------------------------------------------------------|
      
      Um instrumento que sempre dá a mesma nota (Rá-tá-tá-tá)
      
      G---------------------------------------4h6/4h6-------------------|
      D------------------------------------4----------------------------|
      A--------------4--4-4----2--2-2----4------------------------------|
      E-----2--2-2------------------------------------------------------|
      
      Não tem amigos, não vê garotas, só gente morta caindo ao chão
      
      G----------------------------------------------------------------|
      D----------------------------------------------------------------|
      A----------------------------------------------------------------|
      E---22222222--77777777---9--9-7-6--6-7-6-------------------------|
      
      Ao seu país não voltará pois está morto no Vietnã
      
      G----------------------------------------------------------------|
      D----------------------------------------------------------------|
      A----------------------------------------------------------------|
      E---22222222--77777777---7-7-6-4--4-4--7-9--9-9-8-6--------------|
      
      STOP com Rollings Stones!
       STOP com Beatles songs!
      
      G----------------------------------------------------------------|
      D----------------------------------------------------------------|
      A-----0-2-3-4----2-----------------------------------------------|
      E---2------------------------------------------------------------|
      
      No peito um coração não há. Mas duas medalhas,  sim.
      
      G----------------------------------------------------------------|
      D--------------------------------11---11---11---11---11---11-----|
      A----------------------------------------------------------------|
      E---7--6--7--2-------7-6-7-8-9-----------------------------------|
      
      (solinho do Hino)
      
      G---------------------15------15---------------------------------|
      D-----16-------16--18-----16------16-----------------------------|
      A--16------16------------------------16h18--16h18--16------------|
      E----------------------------------------------------------------|
      
      Tcha Tcha Tcha...
      Tcha Tcha Tcha Tcha Tcha 
      
      G--------------------------------------------------------------------------------|
      D----------4----------4----------4---------4-----------4-------------------------|
      A------------------------2--2-2-----2--2-2----4---4-4-----4--4-4-------2-4-4-4-2-|
      E---2--2-2---2----2-2--------------------------------------------2-2-2-----------|
      
      (baixo acompanha o solo)
      G----------------------------------------------------------------|
      D----------------------------------------------------------------|
      A-----------------------------9-8-7-6-5----1111--2222--4444------|
      E---2222222222222222222222----------------------------------2----|
      
      
      G----11--11--13--11-10------11-10----------------------------------|
      D----------------------13-11-----13--11---------------------------|
      A---------------------------------------14-13--11-----------------|
      E-------------------------------------------------14--------------|
      
      Tcha Tcha Tcha...
      
      G--------------------------------------------------------------------------------|
      D----------4----------4----------4---------4-----------4-------------------------|
      A------------------------2--2-2-----2--2-2----4---4-4-----4--4-4-------2-4-4-4-2-|
      E---2--2-2---2----2-2--------------------------------------------2-2-2-----------|
      
      Tcha Tcha Tcha Tcha Tcha 
      
      G--------------------------------------------------------------------------------|
      D----------4----------4----------4---------4-----------4-------------------------|
      A------------------------2--2-2-----2--2-2----4---4-4-----4--4-4-------2-4-2-4-2-|
      E---2--2-2---2----2-2--------------------------------------------2-2-2-----------|

      Comentarios 3

      140 .
      • Lokona Lokona: Em 29/05/2015 17:28

        tá bem errado isso aí

      • Matt Matt: Em 10/01/2015 14:33

        Bem legal tocar essa música, :D

      • lucas lucas: Em 23/12/2013 13:25

        demais :)

      140 cancelar
      0:00 / 0:00

      Capitulos

        2 versões de contrabajo reproducciones contribuición y correción
        2 versões de partiturasformatodownloadscontribuición
        play/pausefechar subir/bajar velocidad
        6ª cuerda E5ª cuerda A4ª cuerda D3ª cuerda G2ª cuerda B1ª cuerda E
          acordes
          publicidad
          cerrar
          ok