Cifra Club

Layla Acoustic

Eric Clapton

Tablatura: Principal (guitarra)
Tom: A
  Dm    Bb5   C5  Dm  (3x)

E|----------------------------------------------|
B|-------3---------------3----------------------|
G|-------2-----3-----5---2----------------------|
D|-------0-----3-----5---0----------------------|
A|-0-3---------1-----3--------------------------|
E|----------------------------------------------|

Solo Intro:

E|------------------------------------------------------------|
B|-----5-6-5h6p5---5-6-5---5-6-6/8-6-8-8/10-8-10-10/13--------|
G|---7-----------7-------7------------------------------------|
D|-7----------------------------------------------------------|
A|------------------------------------------------------------|
E|------------------------------------------------------------|

E|------10-12-10h12p10----10----------------------------------|
B|10-13----------------13----13-10----10----------------------|
G|---------------------------------12----12-10h12p10/9-10-9-7-|
D|------------------------------------------------------------|
A|------------------------------------------------------------|
E|------------------------------------------------------------|

E|------------------------------------------4---|
B|----5-6--5--------------------------------5---|
G|--7--------7-5-7--------------------------4---|
D|7----------------7/5-3---3h5-3------------6---|
A|-----------------------5--------5-3-5-0-3-4---|
E|----------------------------------------------|

C#m7                                G#7
     What will you do when  you get lonely
C#m7         C5      D5         E E7
     No one waitin' by your side?
F#m           B7    E                 A
You've been running hiding much too long
F#m             B7                 E
You know, it's just your foolish pride.

Refrão:

A             Dm  Bb5   C5            Dm
Lay...........la       got me on my knees
      Bb5   C5              Dm
Layla     begging darling please
      Bb5   C5               Dm               Bb5  C5  A|-0-3-
Layla     darling won't you ease my worried  mind?

C#m7                      G#7
   Tried to give you consolation
C#m7         C5        D5       E E7
   Your old man won't let you down
F#m     B7      E                 A
Like a fool  I fell in love with you
F#m        B7                 E
Turned my whole world upside down

Refrão:

A             Dm  Bb5   C5            Dm
Lay...........la       got me on my knees
      Bb5   C5              Dm
Layla     begging darling please
      Bb5   C5               Dm               Bb5  C5  A|-0-3-
Layla     darling won't you ease my worried  mind?

C#m7                        G#7
    Make the best of the situation
C#m7           C5     D5     E E7
    Before  I finally go insane
F#m          B7         E            A
Please don't say we'll never find a way
F#m      B7               E
Tell me all my love's in vain

Refrão:

A             Dm  Bb5   C5            Dm
Lay...........la       got me on my knees
      Bb5   C5              Dm
Layla     begging darling please
      Bb5   C5               Dm               Bb5  C5 Dm
Layla     darling won't you ease my worried  mind?

              Dm  Bb5   C5            Dm
Lay...........la       got me on my knees
      Bb5   C5              Dm
Layla     begging darling please
      Bb5   C5               Dm              Bb5  C5  Dm
Layla     darling won't you ease my worried mind?

Solo:  Dm   Bb5   C5   Dm

E|-5-5--------5-5-5--------5----------------------|
B|-6-6b(1/4)--6-6-6b(1/4)--6----------------------|
G|----------7------------7---7-5------------------|
D|------------------------------7-6-5/3-5p3-----3-|
A|------------------------------------------5-5---|
E|------------------------------------------------|

E|--------------------------|
B|-12/13-13-13--12/13-13-13-|
G|-13/14-14-14--13/14-14-14-|
D|--------------------------|
A|--------------------------|
E|--------------------------|

E|--------------------------------------------------------------|
B|-12/13-13-13--12/13-13-13--12/13-13-13-12/13-13-13------13-15-|
G|-13/14-14-14--13/14-14-14--13/14-14-14-13/14-14-14-12/14------|
D|--------------------------------------------------------------|
A|--------------------------------------------------------------|
E|--------------------------------------------------------------|

E|-----------------------------10-12-10h12p10----10-------------------|
B|-----------------------10-13----------------13----13-10-10-10-10-11-|
G|-14/12-10-12-10--10-12----------------------------------------------|
D|---------------12---------------------------------------------------|
A|--------------------------------------------------------------------|
E|--------------------------------------------------------------------|

E|------------------------------------------------------|
B|-10---------------------5-6-5h6p5---------------------|
G|----12-10-9-7h9-7-5---7-----------7-5-----------------|
D|--------------------7-----------------7-6-5/3-5p3-----|
A|--------------------------------------------------5-5-|
E|------------------------------------------------------|

E|-13b(1/4)-10----10-12-10h12p10----------------10----13(1/4)-10------|
B|-------------13----------------13-13--10/9-10\---10------------13---|
G|--------------------------------------------------------------------|
D|--------------------------------------------------------------------|
A|--------------------------------------------------------------------|
E|--------------------------------------------------------------------|

E|-15p13-15-15-13b(1/4)------------------------------|
B|---------------------------------------------------|
G|---------------------------------------------------|
D|---------------------------------------------------|
A|---------------------------------------------------|
E|---------------------------------------------------|

E|-----10-12-13-15-13-15-x-12-13--10-----------------|
B|--10-------------------------------13--------------|
G|---------------------------------------------------|
D|---------------------------------------------------|
A|---------------------------------------------------|
E|---------------------------------------------------|

E|---------------------------------------------------|
B|----------13----10---------------------------------|
G|-14/12-10----12----12-10---------------------------|
D|-------------------------12------------------------|
A|---------------------------------------------------|
E|---------------------------------------------------|

E|--10-10-10---10------------------------------------|
B|--10-10-10---10------------------------------------|
G|--10-9--9h10-8/9-9h10-7-5--------------------------|
D|--------------------------7-6-5-3b-----------------|
A|----------------------------------5----------------|
E|---------------------------------------------------|

              Dm  Bb5   C5            Dm
Lay...........la       got me on my knees
      Bb5   C5              Dm
Layla     begging darling please
      Bb5   C5               Dm              Bb5  C5 Dm
Layla     darling won't you ease my worried mind?

              Dm  Bb5   C5            Dm
Lay...........la       got me on my knees
      Bb5   C5              Dm
Layla     begging darling please
      Bb5   C5               Dm              Bb5  C5  Dm
Layla     darling won't you ease my worried mind?

E|--------------------------------------|
B|-----5-6--5h6p5-----------------------|
G|---7------------7--7------------------|
D|-7-------------------7-6-5-3--5p3-----|
A|----------------------------------5-5-|
E|--------------------------------------|
reproducciones 26.515
Acordes para:
    Colaboración y revision:

    0 comentarios

    mostrar más comentarios

    ¿Conseguiste tocar?

    28 tocaron 6 aún no

    ¡Graba un vídeo tocando Layla Acoustic y envianoslo!

    00:00 / 00:00
    outros vídeos desta música
    repetir qualidade Automático
    Outros vídeos desta música
    00:00 / 00:00
    Automático
    OK