Ciel

Eric Johnson

tono: G
(intro)

E|-0--------0--------3---8------6-5-------5----------3--5--3-----1----|
B|-6--------3--------3--------------8-7-8------------3----------------|
G|-0--------3--------3-------------------------------3-----------3----|
D|-7--------0-------------------------------------0--------------3----|
A|-x--------3-------------------------------------------------1-------|
E|-6--------3-------------------------------------------------------3-|

E|----------|
B|---5------|
G|---3------|
D|---3------|
A|----------|
E|-------3--|
Página 1 / 1

Letras y titulo
Acordes y artista

restablecer los ajustes
OK