Cifra Club

Hero's Theme

Final Fantasy Tactics

Cifrado: Principal (guitarra y guitarra eléctrica)
tono: D
Final Fantasy Tactics (PS1) - Hero's Theme

E |-0--2--3----------------|2--3--5----3--2--3----|7----8--7------7----|14--14----------12---|
B |------------------------|----------------------|-----------10-------|----------10---------|
G |-------------------0----|----------------------|--------------------|---------------------|
D |-------------2--4-------|-----------------2----|-----6--------------|---------------------|
A |----------2-------------|------3---------------|--------------------|----------------8----|
E |-------0----------------|----------------------|--------------------|-----9---------------|

E |-----------12----10--8--|8------------7-------7|--5-----------------|-----5----7-------7--|
B |------------------------|-----12--10-------5---|--------------------|5--------------5-----|
G |------------------------|----------------------|---------------6----|---------------------|
D |------------------------|----------------------|--------------------|---------------------|
A |-----------8------------|----------------------|--0-----------------|---------------------|
E |------------------------|-------------0--------|--------------------|----------0----------|

E |-5----------------3--2--|3----------------5--3-|-2-----------2------|0--------------------|
B |------------------------|----------------------|----------------3---|---------------------|
G |------------------------|------------0---------|--------------------|---------------------|
D |------------------------|------2--4------------|-------0--2--4------|---------------------|
A |-0----------------------|---3------------------|----0---------------|---------------------|
E |------------------------|0---------------------|-0------------------|0--------------------|

Legenda (Tempo)
2 Traços   -> Colcheia
4 Traços   -> Semínima
16 Traços  -> Mínima +
00:00 / 00:00
Otros videos de esta canción
Repetir
Otros videos de esta canción
Compositor no encontrado.
Colaboración y revisión:
  • Bruno Diniz
68 vistas
    • ½ Tono
    • A
    • Bb
    • B
    • C
    • Db
    • D
    • Eb
    • E
    • F
    • F#
    • G
    • Ab
  • Agregar a la lista

    0 comentarios

    Ver todos los comentarios

    ¿Lograste tocar?

    0 Tocaron 0 Aún no

    ¡Graba un video tocando Hero's Theme y envíanoslo!

    00:00 / 00:00
    OK