Cold Day In The Sun

Foo Fighters

Composição de: Foo Fighters
tono: C
Tuning: eBGDAE

Intro
                     3x|    2x     |
E|---------------------|-----------|---------------------------3-3-3--||
B|---------------------|-----------|---------------------------3-3-3--||
G|------0-----0-----0--|----0-0----|------0-----0-----0-----0--0-0-0--||
D|----0-----0-----0----|----0-0----|----0-----0-----0-----0----0-0-0--||
A|--3------------------|-----------|--------3------------------2-2-2--||
E|--------2-----3------|--3-----3--|--1-----------2-----3------3-3-3--||

Verso:

           2x
E|--3--3--3--|--3--3--3--3--3--3--3--||
B|--3--3--3--|--3--3--3--3--3--3--3--||
G|--0--0--0--|--0--0--0--0--0--0--0--||
D|--2--0--0--|--2--0--0--0--2--0--0--||
A|--3--x--2--|--3--x--2--x--3--x--2--||
E|-----2--3--|-----2--3--1-----2--3--||

Refrão:

       2x                   2x
E|--0--2--|--0--2--3--2--0--2--||
B|--1--3--|--3--3--3--3--3--3--||
G|--2--2--|--2--2--2--2--2--2--||
D|--2--0--|--0--0--0--0--0--0--||
A|--0-----|--------------------||
E|--------|--------------------||

Ponte:

            2x |  Durante o Solo 
E|--3--0--0--2-|--3-3-3--2-2-2--||
B|--3--1--0--3-|--3-3-3--3-3-3--||
G|--0--2--0--2-|--0-0-0--2-2-2--||
D|--0--2--2--0-|--2-2-2--0-0-0--||
A|--2--0--2----|--3-3-3---------||
E|--3-----0----|----------------||

Solo:

E|-----------------------------------------------||
B|-----------------------------------------------||
G|------------------------------------0-0-0-0----||
D|------5-5-7b-5---5~--7-9-7-9-7-5---5-4---------||
A|--5-7----------7-----------------7-----7-5-----||
E|-----------------------------------------------||

E|-----------------------------------------------||
B|-----------------------------------------------||
G|------7---9-7---7--9b-9-7-9-7-5-7-5-4-5-4-0----||
D|--7/9---9-----9--9-----------------------------||
A|-----------------------------------------------||
E|-----------------------------------------------||

Página 1 / 1

Letras y titulo
Acordes y artista

restablecer los ajustes
OK