Cold Day In The Sun

Foo Fighters

Composición de: Foo Fighters
Intro
G|-----------------------------|
D|-----------------------------|
A|-----------------------------|
E|-3-3-3-3-3-3-3-3-3-3-3-3-3-3-|


Verse/Solo
G|------------------------|
D|------------------------|
A|-3--3-------------------|
E|-------2--2--3--3--3--3-|

G|------------------------|
D|------------------------|
A|-3--3-------------------|
E|-------2--2--3--3--3--3-|

G|------------------------|
D|------------------------|
A|-3--3-------------------|
E|-------2--2--3--3--1--1-|

G|------------------------|
D|------------------------|
A|-3--3-------------------|
E|-------2--2--3--3--3--3-|

Chorus
G|-------------------------|
D|-------------------------|
A|-------------3-5-5-5-5-5-|
E|-5-5-3-5-3-5-------------|

Bridge
G|---------------------|
D|---------------------|
A|---------------------|
E|-3-3-3-3-3-3-3-3-3-3-|

G|---------------------|
D|---------------------|
A|---------------------|
E|-1-1-1-1-1-1-1-1-1-1-|

G|---------------------|
D|---------------------|
A|---------------------|
E|-0-0-0-0-0-0-0-0-0-0-|

G|---------------------|
D|-------7---7---7---7-|
A|-5-5-5---5---5---5---|
E|---------------------|

G|---------------------|
D|---------------------|
A|---------------------|
E|-3-3-3-3-3-3-3-3-3-3-|

G|---------------------|
D|---------------------|
A|---------------------|
E|-1-1-1-1-1-1-1-1-1-1-|

G|---------------------|
D|---------------------|
A|---------------------|
E|-0-0-0-0-0-0-0-0-0-0-|

G|---------------------|
D|---------------------|
A|-5-5-5-0-5-5-0-5-0-5-|
E|---------------------|

G|---------------------|
D|---------------------|
A|-3-3-3-3-3-5-5-5-5-5-|
E|---------------------|

| /  slide up
| \  slide down
| h  hammer-on
| p  pull-off
| ~  vibrato
| +  harmonic
| x  Mute note
Página 1 / 1

Letras y titulo
Acordes y artista

restablecer los ajustes
OK