Enough Space

Foo Fighters

Composición de: Foo Fighters
(Normal Tuning)


Main riff
G|----------------------------------------------------------------|
D|----------------------------------------------------------------|
A|-------3h4p0----------------------------------------------------|
E|--3----------3h5--5---5-0-(return to previous 3)----------------|

theres also a fill after the first time the distorted guitar comes 
in and just before the lyrics start

G|-------2--------------------------------------------------------|
D|--2h4-----4-2---------------------------------------------------|
A|---------------3-2-0--------------------------------------------|
E|----------------------3-----------------------------------------|
                         I was waiting for something...

Bridge
G|----------------------------------------------------------------|
D|----------------------------------------------------------------|
A|----------------------------------------------------------------|
E|--2-2-0-2-2---2/14\2--------------------------------------------|

after the bridge, the bass plays a different riff in the verse
which is harder and im not totally sure i have it tabbed right
its played quickly. listen to the song carefully
and you will hear it
G|--------------2-6-2---------------------------------------------|
D|---------2h4--------4-2-----------------------------------------|
A|-----2h4--------------------------------------------------------|
E|--3-------------------------------------------------------------|


_______________________________________________________
Contribuição: Felipe Furlan da Rosa(fynonlipy@mtv.com.br)
Página 1 / 1

Letras y titulo
Acordes y artista

restablecer los ajustes
OK