Miracle

Foo Fighters

Composição de: Foo Fighters
tono: D
Tuning: eBGDAE


Listen to the CD for how many times the chords are played


Intro
e||--2-2-3--||
B||--3-2-3--||
G||--2-2-0--||
D||--0-4-0--||
A||----4-2--||
E||----2-3--|| (x2)


Verse
e||--2-2-3-2-2-3-0--||
B||--3-2-3-3-2-3-0--||
G||--2-2-0-2-2-0-1--||
D||--0-4-0-0-4-0-2--||
A||----4-2---4-2-2--||
E||----2-3---2-3-0--|| (x2)


Chorus
e||--2-3-2-2-3-2-2-3-0--||
B||--2-3-3-2-3-3-2-3-0--||
G||--2-0-2-2-0-2-2-0-1--||
D||--4-0-0-4-0-0-4-0-2--||
A||--4-2---4-2---4-2-2--||
E||--2-3---2-3---2-3-0--||

Back to intro chords - listen to the CD for the timing etc
Página 1 / 1

Letras y titulo
Acordes y artista

restablecer los ajustes
OK