X-Static

Foo Fighters

Composição de: Dave Grohl
tono: G
(Normal Tuning)


Intro
(Guitar 1)
e||---------------------||
B||---------------------||
G||------9-9-9-9-9-9-9--||
D||------9-9-9-9-9-9-9--||
A||--^6--7-7-7-7-7-7-7--||
E||---------------------||

(Guitar 2)
e||------------------------------------------------------------------------|
B||------------------------------------------------------------------------|
G||------------------------------------4-4-4-4-4-4-4---------------4-------|
D||--2-2-2-2-2-2-2-2-2-2-2-2-2-2-----2-0-0-0-0-0-0-0---------------x-------|
A||--2-2-2-2-2-2-1-0-0-0-0-0-0-0-0-2-2-x-x-x-x-x-x-x-4-4-4-4-4-4-3-2-2-2-2-|
E||------------------------------------3-3-3-3-3-3-4-5-5-5-5-5-5-4-3-3-3-3-|

e|--------------------------------------------||
B|--------------------------------------------||
G|-4-4-4-------3-3-3-3-3-4-4-4-4-4-4-4-4-4-4--||
D|-x-x-x-------x-x-x-x-x-2-2-2-2-2-2-2-2-2-2--||
A|-2-2-2-5-1-1-1-1-1-1-1-2-2-2-2-2-2-2-2-2-2--||
E|-3-3-3-4-2-2-2-2-2-2-3-4-4-4-4-4-4-4-4-4-4--||


Chorus
e||--------------------------------------------------------------------------||
B||--------------------------------------------------------------------------||
G||----------1---1-----------1-------------------------2--2--2--------2------||
D||------2-----------2---2-------------2-2-2-2-2-2-----2--2--2-----2------2--||
A||--4---------------2----------1------1-1-1-1-1-1--5--------5--4---------3--||
E||---------------------------------2--2-2-2-2-2-2---------------------------||


Gentilmente cedida por : Rodrigo da Cunha Dunder
Página 1 / 1

Letras y titulo
Acordes y artista

restablecer los ajustes
OK