Cifra Club

Aprenda

Mother Mary

Foxboro Hot Tubs

Tab de bajo: Principal
Intro:
|---------------------------------------------------------------------|
|---------------------------------------------------------------------|
|----------------------------------------------------7-7-7--7-7--77-7-|
|-5-5-5--5-5--55-7-9-9-9--9-9--99-8-7-7-7--7-7--77-7------------------|

Verse:
|---------------------------------------------------------------------|
|---------------------------------------------------------------------|
|----------------------------------------------------7-7-7--7-7--77-7-|
|-5-5-5--5-5--55-7-9-9-9--9-9--99-8-7-7-7--7-7--77-7------------------|

|---------------------------------------------------------------------|
|-------------------------------------------------------------------6-|
|----------------------------------------------------7-7-7--7-7--79---|
|-5-5-5--5-5--55-7-9-9-9--9-9--99-8-7-7-7--7-7--77-7------------------|

|---------------------------------------------------------------------|
|-7-7-7--7-7--76------------------------------------------------------|
|----------------7-----------------------------------7-7-7--7-7--77-7-|
|------------------9-9-9--9-9--99-8-7-7-7--7-7--77-7------------------|

|---------------------------------------------------------------------|
|---------------------------------------------------------------------|
|----------------------------------------------------7-7-7--7-7--77-7-|
|-5-5-5--5-5--55-7-9-9-9--9-9--99-8-7-7-7--7-7--77-7------------------|

Chorus:
|-----------------------------------|
|-----------------------------------|
|-5-5-5--7-7--77-7----------------4-|
|------------------5-5-5--5-5--57---|

|-----------------------------------|
|-----------------------------------|
|-5-5-5--7-7--77-7----------------4-|
|------------------5-5-5--5-5--57---|

|---------------------------------------------------|
|------------------7-7-6--4-44-444------------------|
|-5-5-5--7-7--77-7-----------------5-5-5--7-7--77-7-|
|---------------------------------------------------|

Pre-verse:
|-----------------------------------|
|-----------------------------------|
|-----------------------------------|
|-5-5-5--5-5--55-4-5-5-5--5-5--55-4-|

Verse
Chorus
Pre-verse
Intro x2
Chorus

Outro:
|------------------------------------------------------------|
|------------------------------------------------------------|
|------------------------------------------------------------|
|-5-5-5--5-5--55-4-5-5-5--5-5--55-4-5-5-5--5-5--55-4-5-5-5—5-|
Compositor Billie Joe Armstrong
Colaboración y revision:
  • Lucas Idalino
28 reproducciones

0 comentarios

Mostrar mais comentários

¿Conseguiste tocar?

0 Tocaron 0 Ainda não

Grave um vídeo tocando Mother Mary e mande pra gente!

00:00 / 00:00
outros vídeos desta música
repetir qualidade Automático
Outros vídeos desta música
00:00 / 00:00
Automático
OK