Crazy Rock

Gabriel Valim

tono: C
    (4x)   (4x)      (4x)   (2x)
E|----7--|---5---|----3--|----1-----------------------------------------------
A|----9--|---7---|----5--|----3-----------------------------------------------        
D|-------|-------|-------|----------------------------------------------------
G|-------|-------|-------|----------------------------------------------------
B|-------|-------|-------|----------------------------------------------------
E|-------|-------|-------|----------------------------------------------------

     (3x)   (2x)    
E|----7---|------|------------------------------------------------------------
A|----9---|--7---|--5---------------------------------------------------------
D|--------|--9---|--7---------------------------------------------------------
G|--------|------|------------------------------------------------------------
B|--------|------|------------------------------------------------------------
E|--------|------|------------------------------------------------------------

    (4x)   (4x)      (4x)   (2x)
E|----7--|---5---|----3--|----1-----------------------------------------------
A|----9--|---7---|----5--|----3-----------------------------------------------        
D|-------|-------|-------|----------------------------------------------------
G|-------|-------|-------|----------------------------------------------------
B|-------|-------|-------|----------------------------------------------------
E|-------|-------|-------|----------------------------------------------------

     (3x)   (2x)    
E|----7---|------|------------------------------------------------------------
A|----9---|--7---|--5---------------------------------------------------------
D|--------|--9---|--7---------------------------------------------------------
G|--------|------|------------------------------------------------------------
B|--------|------|------------------------------------------------------------

     (3x)   (2x)    
E|----7---|------|------------------------------------------------------------
A|----9---|--7---|--5---3---1-------------------------------------------------
D|--------|--9---|--7---5---3-------------------------------------------------
G|--------|------|------------------------------------------------------------
B|--------|------|------------------------------------------------------------
Página 1 / 1

Letras y titulo
Acordes y artista

restablecer los ajustes
OK