Kids With Guns

Gorillaz

Composición de: Gorillaz
tono: G
Tabbed by: Chris W. (*)
______________________________________

Bass line for guitar:

E-----------------|
B-----------------|
G-----------------|
D-----------------|
A----------77-55--|
E--77-55----------|


Guitar in verse:

E---------------------------|
B------0-----0--------------|
G------0-----0-9-9-x-5-5-5--|
D--9-9-0-5-5-0-9-9-x-5-5-5--|
A--9-9-0-5-5-0-7-7-x-3-3-3--|
E--7-7---3-3----------------|

Thats all of it, not too much to the song, but a great album!
Página 1 / 1

Letras y titulo
Acordes y artista

restablecer los ajustes
OK