Wake Me Up When September Ends

Green Day

Composição de: Billie Joe Armstrong / Tré Cool / Mike Dirnt
tono: Em
[Intro]

Riff 1
   G5
E|---------------------------------------------------|
B|-----3-----3-----3-----3-----3-----3---------------|
G|---0-----0-----0-----0-----0-----0-----------------|
D|-5-----5-----5-----5-----5-----5-------------------|
A|---------------------------------------------------|
E|---------------------------------------------------|

E|---------------------------------------------------|
B|-----3-----3-----3-----3---------------------------|
G|---0-----0-----0-----0-----------------------------|
D|-5-----5-----5-----5-------------------------------|
A|---------------------------------------------------|
E|---------------------------------------------------|
   G5/F#       Em7         D4
E|---------------------------------------------------|
B|-----3-----3-----3-----3-----3-----3---------------|
G|---0-----0-----0-----0-----0-----0-----------------|
D|-4-----4-----2-----2-----0-----0-------------------|
A|---------------------------------------------------|
E|---------------------------------------------------|
   C             Cm            G5
E|---------------------------------------------------|
B|-----5-----5-------4-----4-------3-----3-----------|
G|-----5-5---5-5-----5-5---5-5-----0-0---0-0---------|
D|---5-----5-------5-----5-------0---0-----0---------|
A|-3-------------3-----------------------------------|
E|-----------------------------3-------3-------------|
   G5
E|---------------------------------------------------|
B|-----3-----3---------------------------------------|
G|-----0-0---0-0-------------------------------------|
D|---0---0-----0-------------------------------------|
A|---------------------------------------------------|
E|-3-------3-----------------------------------------|

   G5                    G5/F#
E|---------------------------------------------------|
B|-----3-------------3-0-----------------------------|
G|-----0-0-----------0-0-----------------------------|
D|---0---0-----0---0---------------------------------|
A|---------------------------------------------------|
E|-3---------2---------------------------------------|

 G5         G5/F#
Summer has come and passed
    Em7           D4
The innocent can never last
 C           Cm           G5
Wake me up when September ends

 G5               G5/F#
Like my fathers come to pass
 Em7             D4
Seven years has gone so fast
 C           Cm           G5     G5/F#
Wake me up when September ends

[Segunda Parte]

Parte 1 de 2
   Em7           G/B           C
E|---------------------------------0-----0-----------|
B|-----0-----0-------3-----3-------1-1---1-1---------|
G|-----0-0---0-0-----0-0---0-0-------0-----0---------|
D|-------0-----0---0---0-----0---2-------------------|
A|---2-----------2-------2-----3-------3-------------|
E|-0-------0-----------------------------------------|

   D
E|-----2-----2----------------------------------------|
B|-----3-3---3-3--------------------------------------|
G|---2---2-----2--------------------------------------|
D|-0-------0------------------------------------------|
A|----------------------------------------------------|
E|----------------------------------------------------|

Parte 2 de 2
   G5
E|---------------------------------------------------|
B|-----3-----3-----3-----3-----3-----3---------------|
G|---0-----0-----0-----0-----0-----0-----------------|
D|-5-----5-----5-----5-----5-----5-------------------|
A|---------------------------------------------------|
E|---------------------------------------------------|

E|---------------------------------------------------|
B|-----3-----3-----3-----3---------------------------|
G|---0-----0-----0-----0-----------------------------|
D|-5-----5-----5-----5-------------------------------|
A|---------------------------------------------------|
E|---------------------------------------------------|
   G5/F#       Em7         D4
E|---------------------------------------------------|
B|-----3-----3-----3-----3-----3-----3---------------|
G|---0-----0-----0-----0-----0-----0-----------------|
D|-4-----4-----2-----2-----0-----0-------------------|
A|---------------------------------------------------|
E|---------------------------------------------------|
   C             Cm            G5
E|---------------------------------------------------|
B|-----5-----5-------4-----4-------3-----3-----------|
G|-----5-5---5-5-----5-5---5-5-----0-0---0-0---------|
D|---5-----5-------5-----5-------0---0-----0---------|
A|-3-------------3-----------------------------------|
E|-----------------------------3-------3-------------|
   G5
E|---------------------------------------------------|
B|-----3-----3---------------------------------------|
G|-----0-0---0-0-------------------------------------|
D|---0---0-----0-------------------------------------|
A|---------------------------------------------------|
E|-3-------3-----------------------------------------|

 Em7            G/B
Here comes the rain again
 C                 G5   G5/F#
Falling from the stars
  Em7           G/B
Drenched in my pain again
   C              D
Becoming who we are

[Primeira Parte]

G5            G5/F#
As my memory rests
     Em7            D4
But never forgets what I lost
 C           Cm           G5     G5/F#
Wake me up when September ends

[Terceira Parte]

(Riff 1)

 G5         G5/F#
Summer has come and passed
    Em7           D4
The innocent can never last
 C           Cm           G5
Wake me up when September ends
 G5           G5/F#
Ring out the bells again
 Em7                D4
Like we did when spring began
 C           Cm           G5    G5/F#
Wake me up when September ends

(quarta parte)
 Em7            G/B
Here comes the rain again
 C                 G    G/F#
Falling from the stars
  Em7           G/B
Drenched in my pain again
   C              D
Becoming who we are

G5            G5/F#
As my memory rests
     Em7            D4
But never forgets what I lost
 C           Cm           G5     G5/F#
Wake me up when September ends

[Quarta Parte]

[Solo]

E|---------------------------------------------------|
B|---------12-------12----12-------12-------12----12-|
G|-4/12-12----12-12----12----11-11----11-11----11----|
D|---------------------------------------------------|
A|---------------------------------------------------|
E|---------------------------------------------------|

E|---------------------------------------------------|
B|-------13-------13----13-15-15-15-15-15-15-15-15---|
G|-12-12----12-12----12----12-12-12-12-11-11-11-11---|
D|---------------------------------------------------|
A|---------------------------------------------------|
E|---------------------------------------------------|

E|---------------------------------------------------|
B|---------12-------12----12-------12-------12----12-|
G|---12-12----12-12----12----11-11----11-11----11----|
D|---------------------------------------------------|
A|---------------------------------------------------|
E|---------------------------------------------------|

E|---------------------------------------------------|
B|-------13-------13----13-15-15-15-15-15-15-15-15---|
G|-12-12----12-12----12----12-12-12-12-11-11-11-11---|
D|---------------------------------------------------|
A|---------------------------------------------------|
E|---------------------------------------------------|

E|---------------------------------------------------|
B|-15-15-15-15-15-15-15-15-15------------------------|
G|-12-12-12-12-11-11-11-11-12------------------------|
D|---------------------------------------------------|
A|---------------------------------------------------|
E|---------------------------------------------------|

G5         G5/F#
Summer has come and passed
    Em7           D4
The innocent can never last
 C           Cm           G5
Wake me up when September ends

 G5               G5/F#
Like my fathers come to pass
  Em7             D4
Twenty years has gone so fast                 (3x)
 C           Cm           G5     G5/F#
Wake me up when September ends        
Página 1 / 1

Letras y titulo
Acordes y artista

restablecer los ajustes
OK