Feeling Kinda High

Gregory Isaacs

G|----------------------------------| 
D|----------------------------------| 
A|-----7777----7777----32--32--32---| 
E|-5-55----5-55----3-33----------53-| 

variation 
G|----------------------------------| 
D|----------------------------------| 
A|-----7777----7777----32--32-232---| 
E|-5-55----5-55----3-33----------53-|
Página 1 / 1

Letras y titulo
Acordes y artista

restablecer los ajustes
OK