Es Tarde

Guasones

Tom: D
Intro: 
e|-----0-5v---3-3-(2)--3-2----------0-5-3-2-0h2---| 
B|---3--------3-3-(3)-----5-3-2v---3--------------| 
G|-2----------2-2-(2)-------------2---------------| 
D|------------------------------------------------| 
A|------------------------------------------------| 
E|------------------------------------------------| 

e|-----0-5v---3-3-(2)--3-2------------------------| 
B|---3--------3-3-(3)-----5-3-2v--2h3h2h3h2h3-----| 
G|-2----------2-2-(2)-----------------------------| 
D|------------------------------------------------| 
A|------------------------------------------------| 
E|------------------------------------------------| 

e|-----0-5v--3-2-0h2----3-2----------0-5-3-2-0h2--| 
B|---3---------------------5-3-2v--3--------------| 
G|-2------------------------------2---------------| 
D|------------------------------------------------| 
A|------------------------------------------------| 
E|------------------------------------------------| 
D          G           D 
es tarde el sol ya salio 
G          Asus4     D 
es tarde para volver atras 
e|-----0-5v---3-2-0h2v-----3-2-------------------------| 
B|---3-------------------------5-3-2v--2h3-------------| 
G|-2---------------------------------------------------| 
D|-----------------------------------------------------| 
A|-----------------------------------------------------| 
E|-----------------------------------------------------| 
D         G          D 
la gente se desperto 
G          Asus4     D 
y yo en el podia del dolor 
PUENTE 
   
e|-----0-5v---3-3-(2)----3-3---3-2-2----2-(2)-----| 
B|---3--------3-3-(3)----3-3---3-2-2----2-(3)-----| 
G|-2----------2-2-(2)----2-2---2-2-2----2-(2)-----| 
D|------------------------------------------------| 
A|------------------------------------------------| 
E|------------------------------------------------| 

e|-----0-5v--3-2-0h2----3-2----------0-5-3-2-0h2--| 
B|---3---------------------5-3-2v--3--------------| 
G|-2------------------------------2---------------| 
D|------------------------------------------------| 
A|------------------------------------------------| 
E|------------------------------------------------| 
D         G          D 
la noche me volvio a atrapar 
G          Asus4     D 
el dia que ella se fue 

Verso: 
e|-----0-5v---3-2-0h2v-----3-2----------10-9-10---10----------------------| 
B|---3-------------------------5-3-2v-----------12---12-10--7h8h7---------| 
G|-2--------------------------------------------------------------7h9h7---| 
D|------------------------------------------------------------------------| 
A|------------------------------------------------------------------------| 
E|------------------------------------------------------------------------| 
D         G          D 
la vida se complico 
G          Asus4     D 
es tarde para creer en dios 

Estribillo 

Bm   F#m  G               D 
Mi amor no hay otra igual 
G                 Asus4             D 
con vos descubri el bien y el mal 

Bm   F#m  G               D 
Mi amor no hay otra igual 
G                 Asus4             D 
con vos descubri el bien y el mal ohhhh 

Solo 
-D G D G Asus4 Dx2 
e|------------------|-----------------------|----------------|----------------10br---------| 
B|-----------7br----|-----------------------|---------7br----|---------------------12-10v--| 
G|------7v--------7-|-----7---7b-6-6/(11v)--|-----7-------7v-|-----7---7b-6----------------| 
D|-5/7--------------|-5-7-------------------|-5-7------------|-5-7-------------------------| 
A|------------------|-----------------------|----------------|-----------------------------| 
E|------------------|-----------------------|----------------|-----------------------------| 

D         G          D 
Es tarde para elegir 
G          Asus4     D 
la calle que debo tomar 
D         G          D 
La cara de pronto la vi 
G          Asus4     D 
sudada y de otro color 
D         G          D 
Es tarde el tiempo ya paso 
G          Asus4     D 
no creo poder escapar 
D         G          D 
No quiero lagrimas caer 
G          Asus4     D 
la palida dama llego 

Estribillo 

Bm   F#m  G               D 
Mi amor no hay otra igual 
G                 Asus4             D 
con vos descubri el bien y el mal 
Bm   F#m  G               D 
Mi amor no hay otra igual 
G                 Asus4             D 
con vos descubri el bien y el mal ohhhh 

Solo 
-Re Sol Re Sol Lasus4 Re-x2 
e|------------------|-----------------------|--------------------|----------------------| 
B|-----------7br----|-----------------------|--------10v---8br---|----------------------| 
G|------7v--------7-|-----7---7b-6-6/(11v)--|--11/12-----------7-|------7--7-6-6-6/7v---| 
D|-5/7--------------|-5-7-------------------|--------------------|--5-7-----------------| 
A|------------------|-----------------------|--------------------|----------------------| 
E|------------------|-----------------------|--------------------|----------------------| 

Solo de armonica 

Es tarde nena para escuchar 
cermones de gente que no 
conoce la vida fatal 
del ser que no quiere ser 

del ser que no quiere ser 
del ser que no quiere ser 

enganche 

e|-----------------------------| 
B|-----------------------------| 
G|-----------7-7-7-7-----------| 
D|-----------7-7-7-7-----------| 
A|-5-5-5-5-5-5-5-5-5--0H3-5V---| 
E|-----------------------------| 


G         Amsus4       D 
DEL SER QUE NO QUIERE SER (descubri el bien y el mal) 
G         Amsus4       D 
DEL SER QUE NO QUIERE SER (descubri el bien y el mal) 
G         Amsus4       D 
DEL SER QUE NO QUIERE SER (descubri el bien y el mal) 
G         Amsus4       D 
DEL SER QUE NO QUIERE SER 
G         Amsus4       D 
DEL SER QUE NO QUIERE SER (descubri el bien y el mal) 
G         Amsus4       D 


Página 1 / 1

Letras y titulo
Acordes y artista

restablecer los ajustes
OK