Fuera de Mi País

Guasones

Tom: A
INTRO: 

Esta base es la intro pero tambien es repetido durante todo el tema: 

RIFF 1: 
e|--------------------------------- 
B|--------------------------------- 
G|--------------------------------- 
D|--2---2-5-2--|--2---2-5-2-2-2---- 
A|--0-4-----0--|--0-4-----0-0-0---- 
E|--------------------------------- 

Antes de que se empeize a cantar: 

e|-------------------------------- 
B|-------------------------------- 
G|-------------------------------- 
D|--2---2-5-2-5 7-5-4-2-0---2----- 
A|--0-4-----0-------------3-0----- 
E|-------------------------------- 

Durante las tres estrofas se repite siempre lo mismo, 
RIFF 2: 
A5  A5   G5  A5   G5   A5   A5   G5   A5   

Ya no me interesa lo que vas a decir, 
yo a vos ya te esuché, 
ya ahora estoy harto de todos estos grandes profetas 
que al final no saben que hacer 

D5       C5               RIFF 2 
  Mejor, fuera de mi país 
D5       C5               RIFF 1 
  Mejor, fuera de mi país 

RIFF 2 
Ya nose ni a quien voté la última vez, 
y lo que se es que igual perdí 
Ya me comieron la oreja, me sacaron la guita 
con que van a seguir. 

D5       C5               RIFF 2 
  Mejor, fuera de mi país 
D5       C5               RIFF 1 
  Mejor, fuera de mi país 

RIFF 2 
Miren ahora a la estrella de rock, 
que para mantener su posición 
El pillo más atrevido terminó sometido 
por las reglas del good show 

D5       C5               RIFF 2 
  Mejor, fuera de mi país 
D5       C5               RIFF 2 
  Mejor, fuera de mi país 

El tema se termina haciendo el RIFF 1 

Cualquier error, duda o consulta escriban y aguante Guasones!!
Página 1 / 1

Letras y titulo
Acordes y artista

restablecer los ajustes
OK