Reyes de La Noche

Guasones

Tom: A (con acordes en la forma de G ) Capotraste na 2ª casa
Intro:
E|-----------------|---------------------|
B|-2/3333-2---4/5--|-2/3333-2-----4/7-5--|
G|-0 0000---4------|-0 0000---4-2--------|
D|-----------------|---------------------|
A|-----------------|---------------------|
E|-----------------|---------------------|

E|--------------------|----------------------------|
B|-2/3333-2-----4/5-5-|-3-3-2------2-2/3-2---------|
G|-0 0000---4-2-------|--------2-4---------4-2-4-2v|
D|--------------------|----------------------------|
A|--------------------|----------------------------|
E|--------------------|----------------------------|

       G             C
Fuimos mucho más que nada

       G             C           G     C G C
Fuimos la mentira,    fuimos lo peor.
       G             C       G    C
Fuimos los soldados a la madrugada
              G     C G  C
Por esa ambición.

Ponte:
         Am
Y ahora estoy en libertad,
         D
Y ahora que puedo pensar
         Am                   D
En no volver a ser ese mismo de antes.

           G          C           G    C
Y qué tristeza hay en la ciudad, amor
           G      C  G  C
Sábado soleado.
           G            C          G     C
Y en el centro de la estatua del dolor
      Am                     D
me sentí parado, me sentí parado.

Fuimos mucho más que todos,
Reyes de la noche, de esta tempestad.
Si te vendí, si te robé, te traicioné,
Fue por uno más.

(Ponte)

Solo 4x: G  C

Ponte:
        Am
Fuimos perros de la noche
    D
oxidados de tristeza, y...(Estribillo)

Refrão:
      C             D
Y querer lo que querés,
      G            C
sin tener que lastimar,
                   D
Recordando que tu amor
      G         C
se robó mi dignidad,
                D
olvidémonos los dos
      G           C
no volvamos a empezar,
        Am        D      G
¿Para qué, para qué?
Página 1 / 1

Letras y titulo
Acordes y artista

restablecer los ajustes
OK