Cifra Club

Street Of Dreams

Guns N' Roses

Tablatura: Principal (guitarra)
Tom: B (con acordes en la forma de C) Afinação: Eb Ab Db Gb Bb Eb
Intro (piano arranged for guitar)|

     C                  A          G
E|-3---------------------------5--5-h-7-----
B|-5----------5-7--8--5--7--8-------------8-
G|-5---5----5---------6-----------------7-7-
D|-5-5----5---------------------------------
A|-3----------------------------------------
E|------------------------------------------

             D                         C
E|------------------------------------------
B|-8--7-----7-h-8-p-7---7-------7-----5-----
G|-------9------------7------7-----7--5-----

                 A                G  F
E|---------------------------|----------|
B|-----5-7--8--5--7--8--10-\-|----------|
G|---5---------6-------------|-------10-|
D|-5-------------------------|--5----10-|
A|---------------------------|--5----8--|
E|---------------------------|--3-------|
                             |  - 2x -  |


G                                  F
 All the love in the world couldn't save you
G                    F
 All the innocence inside
G                            F
 You know I tried so hard to make you
  G                              F
Ooo I wanna make you change your mind

G                         F
 And it hurts too much to see you
G                          F
 And how you left yourself behind
G                            F
 You know I wouldn't want to be you
G                           F
 Now there's a hell I can't describe

         G
So now I wander through my days
Am
Trying to find my ways
       G
To the feelings that I felt
            Am
I saved for you and no one else

              G
And though as long as this road seems
            Am
I know it's called the street of dreams
               C
But that's not stardust on my feet
            F
It leaves a taste that's bittersweet
                  G     F  G   F   A  E
That's called the blues

C                  D             Em
 I don't know just what I should do
C            D         Em
Everywhere I go I see you
C                      D                      Em    A
You know it's what you planned, this much is true Whoa
C                  D                 Em                    C     G
What I thought was beautiful, don't live inside of you anymo... oore

solo|
                    E                            F#
E|--------------------------------------------------------------------
B|-15b--r-15--13---13p12h13--12h13-12---------------------------------
G|------------------------------------14-12-14b-r-14b-14br--12--(h14)-

          E                F#                                 E
E|--------------------------------------------------------------------
B|-------------------------------------------------------15-17-17b----
G|-12h14p12\10--10-9h10/12/14-----12----14--14/16-----14/16-----------
D|---------------------------12----12-----------12--------------------

             F#                           E
E|--------------------------------------------------------------------
B|-r-15\----/15--13-p12--13-p12---------------------------------------
G|------------------------------12-----14b--r-14br-p12--12h14p14\9----
D|---------------------------------12---------------------------------

      D                      C#                     B
E|-/16~~-16p15p13----------18~~-18p17p15----------20~~----------------
B|--------- ------16p15p13---------------18p17p15---------------------
G|--------------------------------------------------------------------

               A                          F#      E1          Eb
E|-/15-17-18-17h18p17-------17-18-20-22-22b~--22b--22-20\18-20b18~~--
B|--------------------20p18------------------------------------------

     Eb                  D       C#                 B         A      F#
E|-/17-18-17-----15-17-17b--r----------------------------------------
B|-----------20------------------------------------------------------
G|-----------------------------/14-12---------10-10/12--10-12--------
D|------------------------------------12-10/12---------------12brb~~~

     E1                                       Eb
E|----------------------------------------------------12/19----------
B|-16p15p13-------------------13h15h16-10-h11-p10-12--------20-------
G|----------16p15p13-15p13p12----------------------12-----------12br-


C                 D              Em
I don't know just what I should do
C            D         Em    A
Everywhere I go I see you
C                      D                      Em
You know it's what you planned, this much is true
C                  D                 Em              A     C  A   G   A
What I thought was beautiful, don't live inside of you anymore


Intro| C A G D C A


C                  D
What this means to me
             Em
Is more than I know you believe
C                  D
What I thought of you now
    Em
Has cost more that it should for me
C                  D
What I thought was true before
     Em
Were lies I couldn't see
C                  D
What I thought was beautiful
   Em              C D Em C D Em C D E C D Em A
Is only memories
reproducciones 1.602
Acordes para:
    Composição: Axl Rose / Dizzy Reed / Tommy Stinson Colaboración y revision:

    0 comentarios

    mostrar más comentarios

    ¿Conseguiste tocar?

    4 tocaron 1 aún no

    ¡Graba un vídeo tocando Street Of Dreams y envianoslo!

    00:00 / 00:00
    outros vídeos desta música
    repetir qualidade Automático
    Outros vídeos desta música
    00:00 / 00:00
    Automático
    OK