Cifra Club

The Ballad Of Dead

Guns N' Roses

Tablatura: Principal (guitarra)
Tom: E
E|---------------------------------------------------------------------------|
B|----------------------------------------11b13--11p10h11p10-----------------|
G|------------10---12b14r12b14---------10--------------------12--------------|
D|--------/12----------------------/12---------------------------------------|
A|---------------------------------------------------------------------------|
E|---------------------------------------------------------------------------|

E|---------------------------------------------------------------------------|
B|----11---------------------------------------------------------------------|
G|--12---12b14----12b14r12p10-12----9b10r9-7h9p7-5h7-------------------------|
D|---------------------------------------------------------------------------|
A|---------------------------------------------------------------------------|
E|---------------------------------------------------------------------------|

E|---------------------------------------------------------------------------|
B|----------------------------------------11b13--11p10h11p10-----------------|
G|------------10---12b14r12b14---------10--------------------12--------------|
D|--------/12----------------------/12---------------------------------------|
A|---------------------------------------------------------------------------|
E|---------------------------------------------------------------------------|

E|-----12-13-12p13h12p13h12p13h12p13h12p13h12p13-13--13b15-------------------|
B|--15-----------------------------------------------------------------------|
G|---------------------------------------------------------------------------|
D|---------------------------------------------------------------------------|
A|---------------------------------------------------------------------------|
E|---------------------------------------------------------------------------|

E|---------------------------------------------------------------------------|
B|--13---15b17r15p13-15------------------------------------------------------|
G|---------------------------------------------------------------------------|
D|---------------------------------------------------------------------------|
A|---------------------------------------------------------------------------|
E|---------------------------------------------------------------------------|

E|----------------------------------13-15-15b17-15p13------------------------|
B|--/13h15-15----13h15-15-----13h15-------------------15-15------------------|
G|---------------------------------------------------------------------------|
D|---------------------------------------------------------------------------|
A|---------------------------------------------------------------------------|
E|---------------------------------------------------------------------------|

E|--10/13-10-------10--------------------------------------------------------|
B|-----------13b15---13b15r13-10-15b17--15b17r15-13-15b17--15b17r------------|
G|---------------------------------------------------------------------------|
D|---------------------------------------------------------------------------|
A|---------------------------------------------------------------------------|
E|---------------------------------------------------------------------------|

E|---------15b17r15-13b15r13------------------18b20-18-17-15----15b17-15-13-|
B|--13-----------------------15-----13-12-11-----------------18-------------|
G|-----14-------------------------------------------------------------------|
D|--------------------------------------------------------------------------|
A|--------------------------------------------------------------------------|
E|--------------------------------------------------------------------------|

E|-----------13--18b20-18-17-15--15b17-15-13-15-15b17------------------------|
B|-15-15---15------------------18--------------------------------------------|
G|---------------------------------------------------------------------------|
D|---------------------------------------------------------------------------|
A|---------------------------------------------------------------------------|
E|---------------------------------------------------------------------------|

E|-15b17-15b17-15b17-15b17-15b17-15b17-15b17---------------------------------|
B|-15b17-15b17-15b17-15b17-15b17-15b17-15b17--17b18r--15h17p15-13-15---------|
G|---------------------------------------------------------------------------|
D|---------------------------------------------------------------------------|
A|---------------------------------------------------------------------------|
E|---------------------------------------------------------------------------|

E|-------------------------------------------------------13b15r13------------|
B|-------10/13-11-11--10-11p10-----------10/13-11-11--10---------------------|
G|-9--10-----------------------10----9-10------------------------------------|
D|---------------------------------------------------------------------------|
A|---------------------------------------------------------------------------|
E|---------------------------------------------------------------------------|

E|---------------------------------------------------------------------------|
B|-------10/13-11-11-------13--11-11-10b11--10-11-13-------------------------|
G|--9-10---------------9-10---------------10---------12----------------------|
D|---------------------------------------------------------------------------|
A|---------------------------------------------------------------------------|
E|---------------------------------------------------------------------------|

E|---------------------------------------------------------------------------|
B|-----------------------------11b13--11p10h11p10----------------------------|
G|---10--12b14r12b14--------10-------------------12--------------------------|
D|-12-------------------/12--------------------------------------------------|
A|---------------------------------------------------------------------------|
E|---------------------------------------------------------------------------|

E|--------------------15b17----------------------------------------------------|
B|---------------14---------15-13----------------------------------------------|
G|--12-15--14-14----14------------14-13-12-10-12-12b13r-10---------------------|
D|--------------------------------------------------------12-------------------|
A|-----------------------------------------------------------------------------|
E|-----------------------------------------------------------------------------|

E|-------------------------------15b17--15b17--15b17--15b17--15b17-----------|
B|---------------------------------------------------------------------------|
G|--10-----------------------10----------------------------------------------|
D|-----12-10---------10-12---------------------------------------------------|
A|----------12-12-12---------------------------------------------------------|
E|---------------------------------------------------------------------------|

E|--15b17-15b17--15b17--15b17-15-13------------------------------------------|
B|---------------------------------15-15-------------------------------------|
G|---------------------------------------------------------------------------|
D|---------------------------------------------------------------------------|
A|---------------------------------------------------------------------------|
E|---------------------------------------------------------------------------|

E|-10/13-10------10----------------------------------------------------------|
B|----------13b15---13b15r-10-----13-----------------------------------------|
G|---------------------------12b14--12b14r-12p10-10-12-12b14r-10--10-10------|
D|--------------------------------------------------------------12-----12-10-|
A|---------------------------------------------------------------------------|
E|---------------------------------------------------------------------------|

E|---------------------------------------------------------------------------|
B|---------------------------------------------------------------------------|
G|----10-10--10-10-----------------------------------------------------------|
D|--12-----12-----12-10-12---------------------------------------------------|
A|---------------------------------------------------------------------------|
E|---------------------------------------------------------------------------|


E|---------------------------------------------------------------------------|
B|-13b15r-10--13b15--13b15r13------------------------------------------------|
G|-----------------------------10--------------------------------------------|
D|-------------------------------------------10-10---10-10---10-10-----------|
A|----------------------------------12-10-12------12-------12-------12-10-12-|
E|---------------------------------------------------------------------------|

E|---------18b20--18-17-15----15b17-15-13----------14-18b20--18-17-15--17b18-|
B|--13--15-----------------18-------------15-15--15-------------------18-----|
G|---------------------------------------------------------------------------|
D|---------------------------------------------------------------------------|
A|---------------------------------------------------------------------------|
E|---------------------------------------------------------------------------|

E|-17-15-15-15-15b17-15p13-15b17--15b17--15b17--15b17-15b17-15b17------------|
B|--------------------------------15b17--15b17--15b17-15b17-15b17------------|
G|---------------------------------------------------------------------------|
D|---------------------------------------------------------------------------|
A|---------------------------------------------------------------------------|
E|---------------------------------------------------------------------------|

E|---------------------------------------------------------------------------|
B|-17b18r17-15-17-15-13-13/15------------------------------------------------|
G|---------------------------------------------------------------------------|
D|---------------------------------------------------------------------------|
A|---------------------------------------------------------------------------|
E|---------------------------------------------------------------------------|

E|-------------------------------------------------------13b15r13------------|
B|-------10/13-11-11--10-11p10-----------10/13-11-11--10---------------------|
G|-9--10-----------------------10----9-10------------------------------------|
D|---------------------------------------------------------------------------|
A|---------------------------------------------------------------------------|
E|---------------------------------------------------------------------------|

E|---------------------------------------------------------------------------|
B|-------10/13-11-11-------13--11-11-10b11--10-11-13-------------------------|
G|--9-10---------------9-10---------------10---------12----------------------|
D|---------------------------------------------------------------------------|
A|---------------------------------------------------------------------------|
E|---------------------------------------------------------------------------|

E|---15b17----15b17-15b17-15b17-15b17-15-13-15-15--13-15b17-15p13-10-13p10---|
B|---15b17-------------------------------------------------------------------|
G|---------------------------------------------------------------------------|
D|---------------------------------------------------------------------------|
A|---------------------------------------------------------------------------|
E|---------------------------------------------------------------------------|

E|------10-------------------------------------------------------------------|
B|-13b15--13b15r-10-----13---------------------------------------------------|
G|-----------------12b14--12b14r-12p10-10-12-12b14r-10-----------------------|
D|-----------------------------------------------------12--------------------|
A|---------------------------------------------------------------------------|
E|---------------------------------------------------------------------------|

E|---------------------------------------------------------------------------|
B|--------------------------------------------13-----------------------------|
G|-10-12-12b14r-10-------10-12b14r-10-12-12b14--12b14r12--10-----------------|
D|-----------------12-12-----------------------------------------------------|
A|---------------------------------------------------------------------------|
E|---------------------------------------------------------------------------|
reproducciones 2.390
Acordes para:
    Composição: DJ Ashba Colaboración y revision:
    • Wiston Thiago

    0 comentarios

    mostrar más comentarios

    ¿Conseguiste tocar?

    3 tocaron 0 aún no

    ¡Graba un vídeo tocando The Ballad Of Dead y envianoslo!

    00:00 / 00:00
    outros vídeos desta música
    repetir qualidade Automático
    Outros vídeos desta música
    00:00 / 00:00
    Automático
    OK