Its Ok But Just This Once

Gym Class Heroes

Composición de: Dave Katz / Gym Class Heroes / Sam Hollander
tono: C
Album: As Cruel As School Children
tabbed by jake.o (j-boy199)

main riff (these are 10's 11's and 12's)
____________________________________________
e|--1010101010-----1010101010--------------|
B|--1212121212-----1010101010-10-10--------|
G|--1111111111-----1212121212-------12-----| 
D|-----------------------------------------| 
A|-----------------------------------------|
E|-----------------------------------------|

There is a riff played after the chorus:
____________________________________________
e|--10-8--7--------------------------------|
B|--12-10-8----8-7-5--6-5-3-0--------------|
G|--11-9--7--------------------------------| 
D|-----------------------------------------| 
A|-----------------------------------------|
E|-----------------------------------------|

not fully sure if its correct, any suggestions or edits are welcome :)

please rate :)
Página 1 / 1

Letras y titulo
Acordes y artista

restablecer los ajustes
OK