Taxi Driver

Gym Class Heroes

Composición de: Gym Class Heroes
tono: G
Musica mto legal, só solos.

Introdução

e|----5-------5-------5----------10--10-------------------------------------|
B|--7---7---7---7---7---7------7-------------7h8-7--------7----5---3--------|
G|7-------6-------5----------7---------------7---7------7----6--------------|
D|------------------------\9-------8----8--7-7---7-7--5----4-----2----------|
A|--------------------------------------------------------------------------|
E|--------------------------------------------------------------------------|

"Just put on this coheed and fall out...boy" para em:
e|-------10--10-------------------------------------------------------------|
B|-----7--------------------------------------------------------------------|
G|---7----------------------------------------------------------------------|
D|\9-------8----------------------------------------------------------------|
A|--------------------------------------------------------------------------|
E|--------------------------------------------------------------------------|

Fechamento:
e|---------------------------------------------------------------------------|
B|---------------------------------------------------------------------------|
G|---------------------------------------------------------------------------|
D|12(x16)-11(x16)-10(x16)-9(x16)-8(x16)-7(x16)-9(x8)-11(x8)-/4-4-4-4-7-5-4-5-|
A|---------------------------------------------------------------------------|
E|---------------------------------------------------------------------------|

2ª guitarra pode fazer assim.
e|--------------------------------------------------------------------------|
B|7-7-7-7-10-8-7-8----------------------------------------------------------|
G|--------------------------------------------------------------------------|
D|--------------------------------------------------------------------------|
A|--------------------------------------------------------------------------|
E|--------------------------------------------------------------------------|
Página 1 / 1

Letras y titulo
Acordes y artista

restablecer los ajustes
OK