Cifra Club

Eu Navegarei

Harpa Cristã

Tablatura: Completa
reproducciones 62
Tono: C
          Am               G
Eu navegarei no oceano do Espírito
           F      Dn                    E
e ali adorarei       ao Deus que meu amor
          Am                       G
Espírito, espírito, que desce como fogo,
                 F                     E
vem como em pentecostes,  e enche-me de novo.

        Am                   G
Eu adorarei ao Deus da minha vida,
               F                          E
que me compreendeu      sem nenhuma explicação.
          Am                       G
Espírito, espírito, que desce como fogo,
                F                    E
vem como em pentecostes,  e enche-me de novo.

E|---------------------------|-------------------5-----5h7---|----------------------------|
B|--1/5-----------4/5--4/5v--|--1\5--5---5--5-----8-------8--|--6h8--6p8--5h6-------5--6--|
G|-------7--5--7-------------|-------------------------------|-------------------7--------|
D|---------------------------|-------------------------------|------------------------------|
A|---------------------------|-------------------------------|------------------------------|
E|---------------------------|-------------------------------|------------------------------|

E|-------------------------------|-----------------5--3-------|--------------------------------------|
B|--6--5-----6--5-----5h6-----5--|--5h6---6--6--6--------5----|--1/5-----------4/5--4/5v--|
G|--------7--------7-------7-----|----------------------------|-------7--5--7---------------------|
D|-------------------------------|----------------------------|---------------------------------------|
A|-------------------------------|----------------------------|---------------------------------------|
E|-------------------------------|----------------------------|---------------------------------------|

E|------------------5-----5h7---|---------------------------|-----------------5--3-------------------|
B|--1/5--5--5--5-----8-------8--|--6h8---6p8--5p6-----5--6--|--5h6--6--6--6---------5-----|
G|------------------------------|------------------7--------|---------------------------------------------|
D|------------------------------|---------------------------|----------------------------------------------|
A|------------------------------|---------------------------|----------------------------------------------|
E|------------------------------|---------------------------|----------------------------------------------|

E|---7---8---7---5---7---8---7---5---8---¬8---8---10---8-----------------|
B|------------------------ 5------------------------------------------------------|
G|------------------------ 5------------------------------------------------------|
D|--------------------------------------------------------------------------------|
A|------------------------ 0------------------------------------------------------|
E|--------------------------------------------------------------------------------|

E|---7---5-------7---7---7---8---7---5---¬3-------5---5---5---------------|
B|-- 8-------8---8-------------------- 6-------6---6---------------------------|
G|-- 7-----------7---------------------5----------- 5---------------------------|
D|-- 5-----------5---------------------3------------0---------------------------|
A|--------------------------------------------------------------------------------|
E|--------------------------------------------------------------------------------|

E|---7---5---4----------------------------------------------------|
B|----------- 5---6---5-------------------------------------------|
G|-----------4-----------------------------------------------------|
D|------------------------------------------------------------------|
A|------------------------------------------------------------------|
E|-----------0-----------------------------------------------------|
Acordes para:
    Colaboración y revision:

    0 comentarios

      mostrar más comentarios
      00:00 / 00:00
      outros vídeos desta música
      repetirqualidadeautomática
      Outro vídeos desta música
        00:00 / 00:00
        automática
        OK