I Live For Your Pain

Helloween

Composición de: Andi Deris
tono: C
Intro no baixo, transcrito p/ guitarra
                                                         
E||--------------------------|--------------------------|
B||--------------------------|--------------------------|
G||--------------------------|--------------------------|
D||--------------------------|--------------------------|
A||--------------------------|--3--3--3--3--3--3--3--3--|
E||--0--0--0--0--0--0--0--0--|--------------------------|
                                                           
  |--------------------------|--------------------------|
  |--------------------------|--------------------------|
  |--------------------------|--------------------------|
  |--------------------------|--------------------------|
  |--------------------------|--3--3--3--3--3--3--3--3--|
  |--0--0--0--0--0--0--0--0--|--------------------------|

Em 7 segundos começa isso:
                                                                       
E||----------------------------------------||
B||----------------------------------------||
G||----------------------------------------||
D||--9--9/5--7-7/5--5---5-5-5-5-5-5--------||
A||--7--7/3--5-5/3--3---3-3-3-3-3-3--------||
E||----------------------------------------||
                        pm.........


E||----------------------------------------||
B||----------------------------------------||
G||----------------------------------------||
D||--9--9/5--7-7/5--5---5-5-5-5-5-5--------||
A||--7--7/3--5-5/3--3---3-3-3-3-3-3--------||
E||----------------------------------------||
                        pm.........

E||----------------------------------------||
B||----------------------------------------||
G||----------------------------------------||
D||--9--9/5--7-7/5--5---5-5-5-5-5-5--------||
A||--7--7/3--5-5/3--3---3-3-3-3-3-3--------||
E||----------------------------------------||
                        pm.........

E||-------||
B||-------||
G||-------||
D||-9-9---||
A||-7-7---||
E||-------||

Durante os versos muito pouca guitarra (ou nenhuma)


Na ponte para o coro, a mesma coisa da introdução:

     Now,       you're caugth inside my cage  

E||----------------------------------------||
B||----------------------------------------||
G||----------------------------------------||
D||--9--9/5--7-7/5--5---5-5-5-5-5-5--------||
A||--7--7/3--5-5/3--3---3-3-3-3-3-3--------||
E||----------------------------------------||
                        pm.........

I'm your redeemer
(nessa parte abafe com a mão da escala os acordes marcados)
ouça a música para pegar o ritmo

E||-------------------------------------||
B||-------------------------------------||
G||-------------------------------------||
D||--9-9-9-9-9-9-9-9-9-9-9-9-9-9-9-9-9--||
A||--7-7-7-7-7-7-7-7-7-7-7-7-7-7-7-7-7--||
E||-------------------------------------||
Fhm    . .   . .   .   . .   . .   .


Durante o coro: (O PRIMEIRO ACORDE AQUI É 
O MESMO QUE O ÚLTIMO DA SEÇÃO ACIMA)

    I_________ I live for your pain

E||---------------------------------------||
B||---------------------------------------||
G||---------------------------------------||
D||--9--5--7---------------------9--5--7--||
A||--7--3--5---------------------7--3--5--||
E||---------------------------------------||
        
E por aí vai (o grapow fica solando por baixo disso, e é difífil a 
beça de ouvir, mas não de tocar...)

Ainda tem muita coisa pra ser tirada (eu já tirei mais alguma coisa, 
mas naum vou postar ainda pq eu nao estou certo), mas isso já da pra tocar
Correções, reclamações etc., email-me
Página 1 / 1

Letras y titulo
Acordes y artista

restablecer los ajustes
OK