Desde Mi Interior

Hillsong United

tono: C
[Intro] F  C  G

E|------------------12----------12------------------|
B|----------13--------------13------13--15--12------|
G|--12--14------14------12----------------------12--|
D|--------------------------------------------------|
A|--------------------------------------------------|
E|--------------------------------------------------|

    F                 C         G
Mil veces te falle, mas tu fuiste fiel
            F             C         G
Tu gracia me levanto, me basta tu amor
       Am      F               C      G
Dios eterno tu luz por siempre brillara
        Am        F       C     G
Y tu gloria incomparable sin final

E|------------------12----------12------------------|
B|----------13--------------13------13--15--12------|
G|--12--14------14------12----------------------12--|
D|--------------------------------------------------|
A|--------------------------------------------------|
E|--------------------------------------------------|

          F           C     G
Señor tu voluntad permanecera
       F                  C      G
En ti me quiero perder en adoracion
       Am      F               C      G
Dios eterno tu luz por siempre brillara
        Am        F       C     G
Y tu gloria incomparable sin final

F           C
 De mi corazon te doy el control
Am             G             F
 Consume todo mi interior, Dios
               Am              G
 Justicia y amor me abrazan señor
               Dm           
 Te amo desde mi interior

E|------------------12----------12------------------|
B|----------13--------------13------13--15--12------|
G|--12--14------14------12----------------------12--|
D|--------------------------------------------------|
A|--------------------------------------------------|
E|--------------------------------------------------|

      Am      F               C      G
Dios eterno tu luz por siempre brillara
        Am        F       C     G
Y tu gloria incomparable sin final
       C         F         G      Am
El clamor de mi ser es contigo estar
       F       G          F     G
Desde mi interior mi alma clamara
Página 1 / 1

Letras y titulo
Acordes y artista

restablecer los ajustes
OK