Desde Mi Interior

Hillsong United

tono: C
INTRO:

E|-----------12-12~---------12---------------------------|
B|------13----------------13--13-15-12-------------------|
G|-12h14--14------------12------------12~----------------| x4
D|-------------------------------------------------------|
A|-------------------------------------------------------|
E|-------------------------------------------------------|


G  O:

E|--8--8--8--8--8--8--8----8-8-8-8-8-8-8-----------------|
B|--10-10-10-10-10-10-10---8-8-8-8-8-8-8-----------------|
G|-------------------------------------------------------|
D|-------------------------------------------------------|
A|-------------------------------------------------------|
E|-------------------------------------------------------|

E|-12-12-12-12-12-12-12--13-13-13-13-12-12-12-12---------|
B|-13-13-13-13-13-13-13--13-13-13-13-13-13-13-13---------|
G|-------------------------------------------------------|
D|-------------------------------------------------------|
A|-------------------------------------------------------|
E|-------------------------------------------------------|

E|-8-7--------8p7------------------------------------------|
B|----10p8-8-----10-10-10-12------10---10-----10-12p10-13~-|
G|--------------------------10-----9--9-7----9-9-----------|
D|---------------------------------------------------------|
A|---------------------------------------------------------|
E|---------------------------------------------------------|

E|-------------12-12-12-12-12----------13-13-13-13-13-13-|
B|-13-12---13--13-13-13-13-13--13-12---13-13-13-13-13-13-|
G|------14--------------------------14-------------------|
D|-------------------------------------------------------|
A|-------------------------------------------------------|
E|-------------------------------------------------------|

E|---17--17--17--17--------19~~--------------------------|
B|-15--15--15--15-----17-17------------------------------|
G|-------------------------------------------------------|
D|-------------------------------------------------------|
A|-------------------------------------------------------|
E|-------------------------------------------------------|


FINAL:

E|-----12-12~--------------12--12----------------|
B|---13-------15-12----------13--13---15-12------|
G|-12---------------12~--------------------12~---| x3
D|-----------------------------------------------|
A|-----------------------------------------------|
E|-----------------------------------------------|

E|-----12-------------------------|
B|---13--13-----------------------|
G|-12----------12-12/14~----------|
D|--------------------------------|
A|--------------------------------|
E|--------------------------------|
Página 1 / 1

Letras y titulo
Acordes y artista

restablecer los ajustes
OK