It's All Tears

Him

Composición de: Ville Valo
tono: G
Intro: 
e|---------------------------------------------------------------------------| 
B|---------------------------------------------------------------------------| 
G|---------------------------------------------------------------------------| 
D|---------------------------------------------------------------------------| 
A|--------2--------2--------2-------2----------------------------------------| 
E|--0-2-3----0-2-3----0-2-3---0-2-3------------------------------------------| 
 
 
chorus: 
e|---------------------------------------------------------------------------| 
B|---------------------------------------------------------------------------| 
G|-----5-4-2-4-4-------------------------------------------------------------| 
D|---------------5-/7-5-4-5-5-5-/7-4-2-0-2-----------------------------------| 
A|---------------------------------------------------------------------------| 
E|---------------------------------------------------------------------------| 
 
e|---------------------------------------------------------------------------| 
B|-----6-5-3-5-5-------------------------------------------------------------| 
G|---------------5-/7-5-4-5-5-5-/7-4-2-0-2-----------------------------------| 
D|---------------------------------------------------------------------------| 
A|---------------------------------------------------------------------------| 
E|---------------------------------------------------------------------------| 
Página 1 / 1

Letras y titulo
Acordes y artista

restablecer los ajustes
OK