Get Stoned

Hinder

Composición de: Austin Winkler / Brian Howes / Cody Hanson / Joe Garvey / Joey Moie / Mark King / Mike Rodden
tono: G
DROP D TUNING 
 
 / - slide 
 ~ - Let ring 
 r - bend and release 
 
Intro - gtr 1 
|-------------------------------------------| 
|-------------------------------------------| 
|--------------------------------5-5-5-5-5--| 
|--5--5-5-5--8--8-8-8--3--3-3-3--5-5-5-5-5--| 
|--5--5-5-5--8--8-8-8--3--3-3-3--3-3-3-3-3--| 
|--5--5-5-5--8--8-8-8--3--3-3-3-------------| 
 
gtr 2 
|--------------------------------------------| 
|-------------------------------11-10--------| 
|--12-10---10-12-10----12-10----------12-10--| 
|--------12--------12--------12--------------| 
|--------------------------------------------| 
|--------------------------------------------| 
 
Verse 
|-------------------------------------------| 
|-------------------------------------------| 
|--------------------------------5-5-5-5-5--| 
|--5--5-5-5--8--8-8-8--3--3-3-3--5-5-5-5-5--| 
|--5--5-5-5--8--8-8-8--3--3-3-3--3-3-3-3-3--| 
|--5--5-5-5--8--8-8-8--3--3-3-3-------------| 
 
Pre-Chorus 
|------------------------------| 
|------------------------------| 
|------------------------------| 
|--1----3----5----1----3----0--| 
|--1----3----5----1----3----0--| 
|--1----3----5----1----3----0--| 
 
Chorus 
|-------------------------------------------| 
|-------------------------------------------| 
|--------------------------------5-5-5-5-5--| 
|--5--5-5-5--8--8-8-8--3--3-3-3--5-5-5-5-5--| 
|--5--5-5-5--8--8-8-8--3--3-3-3--3-3-3-3-3--| 
|--5--5-5-5--8--8-8-8--3--3-3-3-------------| 
 
After Chorus 
|--------------13---------------------13-10-13/15-----| 
|-----11-10-11---11-10-11----11-10-11-----------------| 
|--12---------------------10----------------------15~-| 
|-----------------------------------------------------| 
|-----------------------------------------------------| 
|-----------------------------------------------------| 
 
Verse 2 Fill 
|-----------| 
|-----------| 
|--15r-15~--| 
|-----------| 
|-----------| 
|-----------|
Página 1 / 1

Letras y titulo
Acordes y artista

restablecer los ajustes
OK