Up and Gone (acoustic)

Hoobastank

tono: E
This is a great version of "up and gone" done on an acoustic.
I like it a lot. Hoobastank is an awesome band.up and comin

Intro
------------------------------------------------0----
----------------------------------------------0------
--------------------------------------------3--------
----------4----------------4--------------4----------
----4---4---4---4---4---4-----4---4-----4------------
--2---2-------2---2---2---------2-----2--------------

Verse
------------------0---------      ---------------------0----------0--0-0---0--0--0
----------------0---0-------      -------------------0---0--------0--0-0---0--0--0
---3---3--3-3-3-------3----- X 2  ----1---1--1-1---1-------1------10-1010--9--9--3
---4---4--4-4---------------      ----2---2--2-2------------------11-1111--10-10-4
---4---4--4-4---------------      ----2---2--2-2------------------11-1111--10-10-4
---2---2--2-2---------------      ----0---0--0-0------------------9--9-9---8---8-2
Página 1 / 1

Letras y titulo
Acordes y artista

restablecer los ajustes
OK