Mala Pronta

Hugo Pena e Gabriel

Composición de: Flávio Aquino / Hugo Pena
tono: C
[Intro] C  Am  F  G

E|------------------------------------------|
B|------------------------------------------|
G|--------5-5---5-4-------------------------|
D|--5-5-5-----------7-------7-7---7-5-------|
A|--------------------7-7-7-----------8-----|
E|------------------------------------------|

E|------------------------------------------|
B|------------------------------------------|
G|------------------5-5-4-4h5-4-4--5-4-2-2h4|
D|7-5-7-5-7-5-7-5-7-------------------------|
A|------------------------------------------|
E|------------------------------------------|

[Primeira Parte]

C                      Am
  Você passou da conta

E me tirou do sério
F                      
  Você fez tudo errado 
               G
E acabou o mistério
C                       Am
  Hoje eu tirei a prova

Hoje eu sai pra rua
F                                  G
  Hoje eu dividi a minha vida e a sua

[Pré-Refrão]

        Em          Am
Não dá mais, não valeu
       F               G
Dessa vez, você me perdeu

[Refrão]

C                      
  Deixe a mala pronta
Am
   Arruma a sua roupa
F                                G
  Pode ir embora que eu arranjo outra
C                   
  Eu to falando sério
Am
   Pode acreditar
F                            
  Sabendo que eu tenho razão 
                        G
Porque é que eu vou chorar
               C
Deixe a mala pronta

[Solo] C  Am  F  G

E|------------------------------------------|
B|------------------------------------------|
G|--------5-5---5-4-------------------------|
D|--5-5-5-----------7-------7-7---7-5-------|
A|--------------------7-7-7-----------8-----|
E|------------------------------------------|

E|------------------------------------------|
B|------------------------------------------|
G|------------------5-5-4-4h5-4-4--5-4-2-2h4|
D|7-5-7-5-7-5-7-5-7-------------------------|
A|------------------------------------------|
E|------------------------------------------|

[Pré-Refrão]

        Em          Am
Não dá mais, não valeu
       F               G
Dessa vez, você me perdeu

[Refrão]

C                      
  Deixe a mala pronta
Am
   Arruma a sua roupa
F                                G
  Pode ir embora que eu arranjo outra
C                   
  Eu to falando sério
Am
   Pode acreditar
F                            
  Sabendo que eu tenho razão 
                        G
Porque é que eu vou chorar

C                      
  Deixe a mala pronta
Am
   Arruma a sua roupa
F                                G
  Pode ir embora que eu arranjo outra
C                   
  Eu to falando sério
Am
   Pode acreditar
F                            
  Sabendo que eu tenho razão 
                        G
Porque é que eu vou chorar

               C
Deixe a mala pronta
Página 1 / 1

Letras y titulo
Acordes y artista

restablecer los ajustes
OK